  0
SECTION
  2
HEADER
  9
$ACADVER
  1
AC1009
  9
$DWGCODEPAGE
  3
ansi_1252
  9
$INSBASE
 10
0.0
 20
0.0
 30
0.0
  9
$EXTMIN
 10
34.73686143876745
 20
17.36512956687639
 30
0.0
  9
$EXTMAX
 10
373.1986935243262
 20
252.8336277961551
 30
0.0
  9
$LIMMIN
 10
0.0
 20
0.0
  9
$LIMMAX
 10
12.0
 20
9.0
  9
$ORTHOMODE
 70
     0
  9
$REGENMODE
 70
     1
  9
$FILLMODE
 70
     1
  9
$QTEXTMODE
 70
     0
  9
$MIRRTEXT
 70
     1
  9
$DRAGMODE
 70
     2
  9
$LTSCALE
 40
1.0
  9
$OSMODE
 70
    37
  9
$ATTMODE
 70
     1
  9
$TEXTSIZE
 40
0.2
  9
$TRACEWID
 40
0.05
  9
$TEXTSTYLE
  7
STANDARD
  9
$CLAYER
  8
0
  9
$CELTYPE
  6
BYLAYER
  9
$CECOLOR
 62
   256
  9
$DIMSCALE
 40
1.0
  9
$DIMASZ
 40
0.18
  9
$DIMEXO
 40
0.0625
  9
$DIMDLI
 40
0.38
  9
$DIMRND
 40
0.0
  9
$DIMDLE
 40
0.0
  9
$DIMEXE
 40
0.18
  9
$DIMTP
 40
0.0
  9
$DIMTM
 40
0.0
  9
$DIMTXT
 40
0.18
  9
$DIMCEN
 40
0.09
  9
$DIMTSZ
 40
0.0
  9
$DIMTOL
 70
     0
  9
$DIMLIM
 70
     0
  9
$DIMTIH
 70
     1
  9
$DIMTOH
 70
     1
  9
$DIMSE1
 70
     0
  9
$DIMSE2
 70
     0
  9
$DIMTAD
 70
     0
  9
$DIMZIN
 70
     0
  9
$DIMBLK
  1

  9
$DIMASO
 70
     1
  9
$DIMSHO
 70
     1
  9
$DIMPOST
  1

  9
$DIMAPOST
  1

  9
$DIMALT
 70
     0
  9
$DIMALTD
 70
     2
  9
$DIMALTF
 40
25.4
  9
$DIMLFAC
 40
1.0
  9
$DIMTOFL
 70
     0
  9
$DIMTVP
 40
0.0
  9
$DIMTIX
 70
     0
  9
$DIMSOXD
 70
     0
  9
$DIMSAH
 70
     0
  9
$DIMBLK1
  1

  9
$DIMBLK2
  1

  9
$DIMSTYLE
  2
STANDARD
  9
$DIMCLRD
 70
     0
  9
$DIMCLRE
 70
     0
  9
$DIMCLRT
 70
     0
  9
$DIMTFAC
 40
1.0
  9
$DIMGAP
 40
0.09
  9
$LUNITS
 70
     2
  9
$LUPREC
 70
     4
  9
$SKETCHINC
 40
0.1
  9
$FILLETRAD
 40
0.5
  9
$AUNITS
 70
     0
  9
$AUPREC
 70
     0
  9
$MENU
  1
.
  9
$ELEVATION
 40
0.0
  9
$PELEVATION
 40
0.0
  9
$THICKNESS
 40
0.0
  9
$LIMCHECK
 70
     0
  9
$CHAMFERA
 40
0.0
  9
$CHAMFERB
 40
0.0
  9
$SKPOLY
 70
     0
  9
$TDCREATE
 40
2454910.5
  9
$TDUPDATE
 40
2457361.64182066
  9
$TDINDWG
 40
0.0000000116
  9
$TDUSRTIMER
 40
0.0000000116
  9
$USRTIMER
 70
     1
  9
$ANGBASE
 50
0.0
  9
$ANGDIR
 70
     0
  9
$PDMODE
 70
     0
  9
$PDSIZE
 40
0.0
  9
$PLINEWID
 40
0.0
  9
$COORDS
 70
     1
  9
$SPLFRAME
 70
     0
  9
$SPLINETYPE
 70
     6
  9
$SPLINESEGS
 70
     8
  9
$ATTDIA
 70
     0
  9
$ATTREQ
 70
     1
  9
$HANDLING
 70
     1
  9
$HANDSEED
  5
D9C
  9
$SURFTAB1
 70
     6
  9
$SURFTAB2
 70
     6
  9
$SURFTYPE
 70
     6
  9
$SURFU
 70
     6
  9
$SURFV
 70
     6
  9
$UCSNAME
  2

  9
$UCSORG
 10
0.0
 20
0.0
 30
0.0
  9
$UCSXDIR
 10
1.0
 20
0.0
 30
0.0
  9
$UCSYDIR
 10
0.0
 20
1.0
 30
0.0
  9
$PUCSNAME
  2

  9
$PUCSORG
 10
0.0
 20
0.0
 30
0.0
  9
$PUCSXDIR
 10
1.0
 20
0.0
 30
0.0
  9
$PUCSYDIR
 10
0.0
 20
1.0
 30
0.0
  9
$USERI1
 70
     0
  9
$USERI2
 70
     0
  9
$USERI3
 70
     0
  9
$USERI4
 70
     0
  9
$USERI5
 70
     0
  9
$USERR1
 40
0.0
  9
$USERR2
 40
0.0
  9
$USERR3
 40
0.0
  9
$USERR4
 40
0.0
  9
$USERR5
 40
0.0
  9
$WORLDVIEW
 70
     1
  9
$SHADEDGE
 70
     3
  9
$SHADEDIF
 70
    70
  9
$TILEMODE
 70
     1
  9
$MAXACTVP
 70
    64
  9
$PLIMCHECK
 70
     0
  9
$PEXTMIN
 10
1.000000000000000E+20
 20
1.000000000000000E+20
 30
1.000000000000000E+20
  9
$PEXTMAX
 10
-1.000000000000000E+20
 20
-1.000000000000000E+20
 30
-1.000000000000000E+20
  9
$PLIMMIN
 10
0.0
 20
0.0
  9
$PLIMMAX
 10
12.0
 20
9.0
  9
$UNITMODE
 70
     0
  9
$VISRETAIN
 70
     1
  9
$PLINEGEN
 70
     0
  9
$PSLTSCALE
 70
     1
  0
ENDSEC
  0
SECTION
  2
TABLES
  0
TABLE
  2
VPORT
 70
     1
  0
VPORT
  2
*ACTIVE
 70
     0
 10
0.0
 20
0.0
 11
1.0
 21
1.0
 12
10.42990654205607
 22
4.5
 13
0.0
 23
0.0
 14
0.5
 24
0.5
 15
0.5
 25
0.5
 16
0.0
 26
0.0
 36
1.0
 17
0.0
 27
0.0
 37
0.0
 40
9.0
 41
1.972972972850329
 42
50.0
 43
0.0
 44
0.0
 50
0.0
 51
0.0
 71
     0
 72
   100
 73
     1
 74
     3
 75
     0
 76
     0
 77
     0
 78
     0
  0
ENDTAB
  0
TABLE
  2
LTYPE
 70
     2
  0
LTYPE
  2
CONTINUOUS
 70
     0
  3
Solid line
 72
    65
 73
     0
 40
0.0
  0
LTYPE
  2
CONTINUOUS2
 70
     0
  3
Solid Line
 72
    65
 73
     0
 40
0.0
  0
ENDTAB
  0
TABLE
  2
LAYER
 70
     3
  0
LAYER
  2
0
 70
     0
 62
     7
  6
CONTINUOUS
  0
LAYER
  2
SLD-0
 70
     0
 62
   179
  6
CONTINUOUS
  0
LAYER
  2
DEFAULT_3
 70
     0
 62
    19
  6
CONTINUOUS
  0
ENDTAB
  0
TABLE
  2
STYLE
 70
     1
  0
STYLE
  2
STANDARD
 70
     0
 40
0.0
 41
1.0
 50
0.0
 71
     0
 42
0.2
  3
txt
  4

  0
ENDTAB
  0
TABLE
  2
VIEW
 70
     0
  0
ENDTAB
  0
TABLE
  2
UCS
 70
     0
  0
ENDTAB
  0
TABLE
  2
APPID
 70
     1
  0
APPID
  2
ACAD
 70
     0
  0
ENDTAB
  0
TABLE
  2
DIMSTYLE
 70
     1
  0
DIMSTYLE
  2
STANDARD
 70
     0
  3

  4

  5

  6

  7

 40
1.0
 41
0.18
 42
0.0625
 43
0.38
 44
0.18
 45
0.0
 46
0.0
 47
0.0
 48
0.0
140
0.18
141
0.09
142
0.0
143
25.4
144
1.0
145
0.0
146
1.0
147
0.09
 71
     0
 72
     0
 73
     1
 74
     1
 75
     0
 76
     0
 77
     0
 78
     0
170
     0
171
     2
172
     0
173
     0
174
     0
175
     0
176
     0
177
     0
178
     0
  0
ENDTAB
  0
ENDSEC
  0
SECTION
  2
BLOCKS
  0
BLOCK
  8
0
  2
$MODEL_SPACE
 70
     0
 10
0.0
 20
0.0
 30
0.0
  3
$MODEL_SPACE
  1

  0
ENDBLK
  5
21
  8
0
  0
BLOCK
 67
     1
  8
0
  2
$PAPER_SPACE
 70
     0
 10
0.0
 20
0.0
 30
0.0
  3
$PAPER_SPACE
  1

  0
ENDBLK
  5
1D
 67
     1
  8
0
  0
ENDSEC
  0
SECTION
  2
ENTITIES
  0
POLYLINE
  5
6F
  8
0
 66
     1
 10
0.0
 20
0.0
 30
0.0
 70
     1
  0
VERTEX
  5
177
  8
0
 10
154.822913779147
 20
177.3399331064743
 30
0.0
 42
0.4142135623730951
  0
VERTEX
  5
178
  8
0
 10
151.822913779147
 20
174.3399331064743
 30
0.0
 42
0.4142135623730951
  0
VERTEX
  5
179
  8
0
 10
154.822913779147
 20
171.3399331064743
 30
0.0
 42
0.4142135623730951
  0
VERTEX
  5
17A
  8
0
 10
157.822913779147
 20
174.3399331064743
 30
0.0
 42
0.4142135623730951
  0
SEQEND
  5
C9D
  8
0
  0
POLYLINE
  5
70
  8
0
 66
     1
 10
0.0
 20
0.0
 30
0.0
 70
     1
  0
VERTEX
  5
17B
  8
0
 10
286.1401430015998
 20
184.5349238683518
 30
0.0
 42
0.4142135623730951
  0
VERTEX
  5
17C
  8
0
 10
283.1401430015998
 20
181.5349238683518
 30
0.0
 42
0.4142135623730951
  0
VERTEX
  5
17D
  8
0
 10
286.1401430015998
 20
178.5349238683518
 30
0.0
 42
0.4142135623730951
  0
VERTEX
  5
17E
  8
0
 10
289.1401430015998
 20
181.5349238683518
 30
0.0
 42
0.4142135623730951
  0
SEQEND
  5
C9E
  8
0
  0
POLYLINE
  5
71
  8
0
 66
     1
 10
0.0
 20
0.0
 30
0.0
 70
     1
  0
VERTEX
  5
17F
  8
0
 10
258.1986978898897
 20
72.50240766288019
 30
0.0
 42
0.4142135623730951
  0
VERTEX
  5
180
  8
0
 10
255.1986978898897
 20
69.50240766288019
 30
0.0
 42
0.4142135623730951
  0
VERTEX
  5
181
  8
0
 10
258.1986978898897
 20
66.50240766288019
 30
0.0
 42
0.4142135623730951
  0
VERTEX
  5
182
  8
0
 10
261.1986978898897
 20
69.50240766288019
 30
0.0
 42
0.4142135623730951
  0
SEQEND
  5
C9F
  8
0
  0
POLYLINE
  5
72
  8
0
 66
     1
 10
0.0
 20
0.0
 30
0.0
 70
     1
  0
VERTEX
  5
183
  8
0
 10
170.3986978898897
 20
72.50240766288019
 30
0.0
 42
0.4142135623730951
  0
VERTEX
  5
184
  8
0
 10
167.3986978898897
 20
69.50240766288019
 30
0.0
 42
0.4142135623730951
  0
VERTEX
  5
185
  8
0
 10
170.3986978898897
 20
66.50240766288019
 30
0.0
 42
0.4142135623730951
  0
VERTEX
  5
186
  8
0
 10
173.3986978898897
 20
69.50240766288019
 30
0.0
 42
0.4142135623730951
  0
SEQEND
  5
CA0
  8
0
  0
POLYLINE
  5
73
  8
0
 66
     1
 10
0.0
 20
0.0
 30
0.0
 70
     1
  0
VERTEX
  5
187
  8
0
 10
68.19869788988969
 20
84.50240766288017
 30
0.0
 42
0.4142135623730951
  0
VERTEX
  5
188
  8
0
 10
53.19869788988967
 20
69.50240766288016
 30
0.0
 42
0.4142135623730951
  0
VERTEX
  5
189
  8
0
 10
68.19869788988969
 20
54.50240766288015
 30
0.0
 42
0.4142135623730951
  0
VERTEX
  5
18A
  8
0
 10
83.1986978898897
 20
69.50240766288016
 30
0.0
 42
0.4142135623730951
  0
SEQEND
  5
CA1
  8
0
  0
POLYLINE
  5
74
  8
0
 66
     1
 10
0.0
 20
0.0
 30
0.0
 70
     1
  0
VERTEX
  5
18B
  8
0
 10
348.1986978898897
 20
86.5024076628802
 30
0.0
 42
0.4142135623730951
  0
VERTEX
  5
18C
  8
0
 10
331.1986978898897
 20
69.5024076628802
 30
0.0
 42
0.4142135623730951
  0
VERTEX
  5
18D
  8
0
 10
348.1986978898897
 20
52.5024076628802
 30
0.0
 42
0.4142135623730951
  0
VERTEX
  5
18E
  8
0
 10
365.1986978898897
 20
69.5024076628802
 30
0.0
 42
0.4142135623730951
  0
SEQEND
  5
CA2
  8
0
  0
POLYLINE
  5
75
  8
0
 66
     1
 10
0.0
 20
0.0
 30
0.0
 70
     1
  0
VERTEX
  5
18F
  8
0
 10
248.1986961136713
 20
76.25910311595774
 30
0.0
 42
0.419334664092482
  0
VERTEX
  5
190
  8
0
 10
244.1288882641405
 20
80.25849383081805
 30
0.0
  0
VERTEX
  5
191
  8
0
 10
184.3288882444754
 20
79.21468091787077
 30
0.0
 42
0.4091107978114318
  0
VERTEX
  5
192
  8
0
 10
180.3986978898897
 20
75.215290167485
 30
0.0
  0
VERTEX
  5
193
  8
0
 10
180.3986976663723
 20
63.91171084375357
 30
0.0
 42
0.4091108343060574
  0
VERTEX
  5
194
  8
0
 10
184.3288882641406
 20
59.91231983214723
 30
0.0
  0
VERTEX
  5
195
  8
0
 10
244.1288909684076
 20
58.86850690127587
 30
0.0
 42
0.4193346030619386
  0
VERTEX
  5
196
  8
0
 10
248.1986978898897
 20
62.86789773006547
 30
0.0
  0
SEQEND
  5
CA3
  8
0
  0
POLYLINE
  5
77
  8
SLD-0
 66
     1
 10
0.0
 20
0.0
 30
0.0
 70
     1
  0
VERTEX
  5
197
  8
SLD-0
 10
91.7380932181417
 20
158.6328841431182
 30
0.0
  0
VERTEX
  5
198
  8
SLD-0
 10
91.52391894778923
 20
158.1019626130372
 30
0.0
  0
VERTEX
  5
199
  8
SLD-0
 10
90.86919598147082
 20
157.926530122946
 30
0.0
  0
VERTEX
  5
19A
  8
SLD-0
 10
90.62420349789174
 20
158.1134444552803
 30
0.0
  0
VERTEX
  5
19B
  8
SLD-0
 10
90.57191949451833
 20
157.8617265560709
 30
0.0
  0
VERTEX
  5
19C
  8
SLD-0
 10
90.52810530784308
 20
157.8796894355994
 30
0.0
  0
VERTEX
  5
19D
  8
SLD-0
 10
90.58402244279212
 20
158.1491154353694
 30
0.0
  0
VERTEX
  5
19E
  8
SLD-0
 10
90.41825485746809
 20
158.2792345202361
 30
0.0
  0
VERTEX
  5
19F
  8
SLD-0
 10
89.95631981563017
 20
160.0031995661716
 30
0.0
  0
VERTEX
  5
1A0
  8
SLD-0
 10
90.17002329144356
 20
160.5358781253924
 30
0.0
  0
VERTEX
  5
1A1
  8
SLD-0
 10
90.82474625776196
 20
160.7113106154835
 30
0.0
  0
VERTEX
  5
1A2
  8
SLD-0
 10
91.06891101350976
 20
160.5223341154925
 30
0.0
  0
VERTEX
  5
1A3
  8
SLD-0
 10
91.12076487158032
 20
160.7757771362681
 30
0.0
  0
VERTEX
  5
1A4
  8
SLD-0
 10
91.16586688075006
 20
160.758159327737
 30
0.0
  0
VERTEX
  5
1A5
  8
SLD-0
 10
91.10866192330653
 20
160.4883882569697
 30
0.0
  0
VERTEX
  5
1A6
  8
SLD-0
 10
91.27615817630377
 20
160.3568491890537
 30
0.0
  0
SEQEND
  5
CA4
  8
SLD-0
  0
POLYLINE
  5
78
  8
SLD-0
 66
     1
 10
0.0
 20
0.0
 30
0.0
 70
     1
  0
VERTEX
  5
1A7
  8
SLD-0
 10
91.68981084642479
 20
158.6416462689089
 30
0.0
  0
VERTEX
  5
1A8
  8
SLD-0
 10
91.23916417364875
 20
160.323482547971
 30
0.0
  0
VERTEX
  5
1A9
  8
SLD-0
 10
91.09904221315155
 20
160.4307277023307
 30
0.0
  0
VERTEX
  5
1AA
  8
SLD-0
 10
90.6355604253285
 20
158.1697729167379
 30
0.0
  0
VERTEX
  5
1AB
  8
SLD-0
 10
90.87006586910837
 20
157.9856981250273
 30
0.0
  0
VERTEX
  5
1AC
  8
SLD-0
 10
91.49229377946158
 20
158.1524235911145
 30
0.0
  0
SEQEND
  5
CA5
  8
SLD-0
  0
POLYLINE
  5
79
  8
SLD-0
 66
     1
 10
0.0
 20
0.0
 30
0.0
 70
     1
  0
VERTEX
  5
1AD
  8
SLD-0
 10
91.05801418073618
 20
160.4642885573757
 30
0.0
  0
VERTEX
  5
1AE
  8
SLD-0
 10
90.82304864229312
 20
160.6500804457456
 30
0.0
  0
VERTEX
  5
1AF
  8
SLD-0
 10
90.20082073193993
 20
160.4833549796583
 30
0.0
  0
VERTEX
  5
1B0
  8
SLD-0
 10
90.00507083161882
 20
159.9928082335894
 30
0.0
  0
VERTEX
  5
1B1
  8
SLD-0
 10
90.45571750439487
 20
158.3109719545273
 30
0.0
  0
VERTEX
  5
1B2
  8
SLD-0
 10
90.59453239291314
 20
158.2033337717829
 30
0.0
  0
SEQEND
  5
CA6
  8
SLD-0
  0
POLYLINE
  5
7A
  8
SLD-0
 66
     1
 10
0.0
 20
0.0
 30
0.0
 70
     1
  0
VERTEX
  5
1B3
  8
SLD-0
 10
95.39223701826779
 20
159.6120090233891
 30
0.0
  0
VERTEX
  5
1B4
  8
SLD-0
 10
95.17806274791532
 20
159.0810874933081
 30
0.0
  0
VERTEX
  5
1B5
  8
SLD-0
 10
94.52333978159692
 20
158.905655003217
 30
0.0
  0
VERTEX
  5
1B6
  8
SLD-0
 10
94.07239865759418
 20
159.258359400507
 30
0.0
  0
VERTEX
  5
1B7
  8
SLD-0
 10
93.72420329644599
 20
160.5578421792718
 30
0.0
  0
VERTEX
  5
1B8
  8
SLD-0
 10
94.14375671572151
 20
161.6006367873642
 30
0.0
  0
VERTEX
  5
1B9
  8
SLD-0
 10
94.46981540170607
 20
161.6880039489589
 30
0.0
  0
VERTEX
  5
1BA
  8
SLD-0
 10
94.48466682943865
 20
161.632577666096
 30
0.0
  0
VERTEX
  5
1BB
  8
SLD-0
 10
94.17418181082913
 20
161.5493834560976
 30
0.0
  0
VERTEX
  5
1BC
  8
SLD-0
 10
93.77312551044885
 20
160.5468119270025
 30
0.0
  0
VERTEX
  5
1BD
  8
SLD-0
 10
93.8766575095414
 20
160.1604252461799
 30
0.0
  0
VERTEX
  5
1BE
  8
SLD-0
 10
94.8210506890354
 20
160.4134746359628
 30
0.0
  0
VERTEX
  5
1BF
  8
SLD-0
 10
95.27245190770132
 20
160.0590531420134
 30
0.0
  0
SEQEND
  5
CA7
  8
SLD-0
  0
POLYLINE
  5
7B
  8
SLD-0
 66
     1
 10
0.0
 20
0.0
 30
0.0
 70
     1
  0
VERTEX
  5
1C0
  8
SLD-0
 10
95.34395464655088
 20
159.6207711491798
 30
0.0
  0
VERTEX
  5
1C1
  8
SLD-0
 10
95.2353616061633
 20
160.0260458932547
 30
0.0
  0
VERTEX
  5
1C2
  8
SLD-0
 10
94.81970616947086
 20
160.35092669437
 30
0.0
  0
VERTEX
  5
1C3
  8
SLD-0
 10
93.89220442920671
 20
160.1024033520878
 30
0.0
  0
VERTEX
  5
1C4
  8
SLD-0
 10
94.10986130452096
 20
159.2900968347983
 30
0.0
  0
VERTEX
  5
1C5
  8
SLD-0
 10
94.52420966923447
 20
158.9648230052982
 30
0.0
  0
VERTEX
  5
1C6
  8
SLD-0
 10
95.14643757958767
 20
159.1315484713855
 30
0.0
  0
SEQEND
  5
CA8
  8
SLD-0
  0
POLYLINE
  5
7C
  8
SLD-0
 66
     1
 10
0.0
 20
0.0
 30
0.0
 70
     1
  0
VERTEX
  5
1C7
  8
SLD-0
 10
96.14358070939535
 20
159.3671889336378
 30
0.0
  0
VERTEX
  5
1C8
  8
SLD-0
 10
96.10069322539334
 20
159.355697266934
 30
0.0
  0
VERTEX
  5
1C9
  8
SLD-0
 10
95.98633295190211
 20
159.7824956179708
 30
0.0
  0
VERTEX
  5
1CA
  8
SLD-0
 10
96.02922043590412
 20
159.7939872846746
 30
0.0
  0
SEQEND
  5
CA9
  8
SLD-0
  0
POLYLINE
  5
7D
  8
SLD-0
 66
     1
 10
0.0
 20
0.0
 30
0.0
 70
     1
  0
VERTEX
  5
1CB
  8
SLD-0
 10
97.62771717251225
 20
160.2110041254147
 30
0.0
  0
VERTEX
  5
1CC
  8
SLD-0
 10
97.41354290215978
 20
159.6800825953337
 30
0.0
  0
VERTEX
  5
1CD
  8
SLD-0
 10
97.0783796106329
 20
159.5902758620365
 30
0.0
  0
VERTEX
  5
1CE
  8
SLD-0
 10
96.62743848663015
 20
159.9429802593266
 30
0.0
  0
VERTEX
  5
1CF
  8
SLD-0
 10
96.16550344479224
 20
161.6669453052621
 30
0.0
  0
VERTEX
  5
1D0
  8
SLD-0
 10
96.37920692060563
 20
162.1996238644829
 30
0.0
  0
VERTEX
  5
1D1
  8
SLD-0
 10
96.71437021213252
 20
162.2894305977801
 30
0.0
  0
VERTEX
  5
1D2
  8
SLD-0
 10
97.16578213067433
 20
161.9349691713503
 30
0.0
  0
SEQEND
  5
CAA
  8
SLD-0
  0
POLYLINE
  5
7E
  8
SLD-0
 66
     1
 10
0.0
 20
0.0
 30
0.0
 70
     1
  0
VERTEX
  5
1D3
  8
SLD-0
 10
97.57943480079534
 20
160.2197662512054
 30
0.0
  0
VERTEX
  5
1D4
  8
SLD-0
 10
97.1287881280193
 20
161.9016025302675
 30
0.0
  0
VERTEX
  5
1D5
  8
SLD-0
 10
96.71399036851848
 20
162.2285535239464
 30
0.0
  0
VERTEX
  5
1D6
  8
SLD-0
 10
96.410004361102
 20
162.1471007187488
 30
0.0
  0
VERTEX
  5
1D7
  8
SLD-0
 10
96.2142544607809
 20
161.6565539726799
 30
0.0
  0
VERTEX
  5
1D8
  8
SLD-0
 10
96.66490113355694
 20
159.9747176936178
 30
0.0
  0
VERTEX
  5
1D9
  8
SLD-0
 10
97.07924949827044
 20
159.6494438641178
 30
0.0
  0
VERTEX
  5
1DA
  8
SLD-0
 10
97.38323550568694
 20
159.7308966693154
 30
0.0
  0
SEQEND
  5
CAB
  8
SLD-0
  0
POLYLINE
  5
7F
  8
SLD-0
 66
     1
 10
0.0
 20
0.0
 30
0.0
 70
     1
  0
VERTEX
  5
1DB
  8
SLD-0
 10
99.22629422983859
 20
160.6393415569643
 30
0.0
  0
VERTEX
  5
1DC
  8
SLD-0
 10
99.01211995948611
 20
160.1084200268832
 30
0.0
  0
VERTEX
  5
1DD
  8
SLD-0
 10
98.67695666795923
 20
160.0186132935861
 30
0.0
  0
VERTEX
  5
1DE
  8
SLD-0
 10
98.22601554395649
 20
160.3713176908761
 30
0.0
  0
VERTEX
  5
1DF
  8
SLD-0
 10
97.76408050211857
 20
162.0952827368116
 30
0.0
  0
VERTEX
  5
1E0
  8
SLD-0
 10
97.97778397793196
 20
162.6279612960324
 30
0.0
  0
VERTEX
  5
1E1
  8
SLD-0
 10
98.31294726945886
 20
162.7177680293296
 30
0.0
  0
VERTEX
  5
1E2
  8
SLD-0
 10
98.76435918800067
 20
162.3633066028998
 30
0.0
  0
SEQEND
  5
CAC
  8
SLD-0
  0
POLYLINE
  5
80
  8
SLD-0
 66
     1
 10
0.0
 20
0.0
 30
0.0
 70
     1
  0
VERTEX
  5
1E3
  8
SLD-0
 10
99.17801185812168
 20
160.648103682755
 30
0.0
  0
VERTEX
  5
1E4
  8
SLD-0
 10
98.72736518534563
 20
162.329939961817
 30
0.0
  0
VERTEX
  5
1E5
  8
SLD-0
 10
98.31256742584482
 20
162.656890955496
 30
0.0
  0
VERTEX
  5
1E6
  8
SLD-0
 10
98.00858141842834
 20
162.5754381502984
 30
0.0
  0
VERTEX
  5
1E7
  8
SLD-0
 10
97.81283151810723
 20
162.0848914042294
 30
0.0
  0
VERTEX
  5
1E8
  8
SLD-0
 10
98.26347819088328
 20
160.4030551251674
 30
0.0
  0
VERTEX
  5
1E9
  8
SLD-0
 10
98.67782655559678
 20
160.0777812956673
 30
0.0
  0
VERTEX
  5
1EA
  8
SLD-0
 10
98.98181256301328
 20
160.1592341008649
 30
0.0
  0
SEQEND
  5
CAD
  8
SLD-0
  0
POLYLINE
  5
81
  8
SLD-0
 66
     1
 10
0.0
 20
0.0
 30
0.0
 70
     1
  0
VERTEX
  5
1EB
  8
SLD-0
 10
101.2559664682132
 20
160.7370485691094
 30
0.0
  0
VERTEX
  5
1EC
  8
SLD-0
 10
101.2131089335716
 20
160.7255649273126
 30
0.0
  0
VERTEX
  5
1ED
  8
SLD-0
 10
100.8733771742508
 20
161.9934611140424
 30
0.0
  0
VERTEX
  5
1EE
  8
SLD-0
 10
100.468331188213
 20
162.3100140384657
 30
0.0
  0
VERTEX
  5
1EF
  8
SLD-0
 10
100.2771153593094
 20
161.8336932422514
 30
0.0
  0
VERTEX
  5
1F0
  8
SLD-0
 10
100.3885010673038
 20
161.4179961207794
 30
0.0
  0
VERTEX
  5
1F1
  8
SLD-0
 10
100.3456135833018
 20
161.4065044540756
 30
0.0
  0
VERTEX
  5
1F2
  8
SLD-0
 10
100.2342278753074
 20
161.8222015755476
 30
0.0
  0
VERTEX
  5
1F3
  8
SLD-0
 10
99.83049966112443
 20
162.1391075958752
 30
0.0
  0
VERTEX
  5
1F4
  8
SLD-0
 10
99.63928383222088
 20
161.6627867996609
 30
0.0
  0
VERTEX
  5
1F5
  8
SLD-0
 10
99.97901559154164
 20
160.3948906129311
 30
0.0
  0
VERTEX
  5
1F6
  8
SLD-0
 10
99.93612810753963
 20
160.3833989462273
 30
0.0
  0
VERTEX
  5
1F7
  8
SLD-0
 10
99.47977840091527
 20
162.0865192373686
 30
0.0
  0
VERTEX
  5
1F8
  8
SLD-0
 10
99.52266588491727
 20
162.0980109040724
 30
0.0
  0
VERTEX
  5
1F9
  8
SLD-0
 10
99.61830137560446
 20
161.741094393821
 30
0.0
  0
VERTEX
  5
1FA
  8
SLD-0
 10
99.80947440500447
 20
162.2175749199571
 30
0.0
  0
VERTEX
  5
1FB
  8
SLD-0
 10
100.2432338551489
 20
161.877001312921
 30
0.0
  0
VERTEX
  5
1FC
  8
SLD-0
 10
100.447305932093
 20
162.3884813625476
 30
0.0
  0
VERTEX
  5
1FD
  8
SLD-0
 10
100.9105744745477
 20
162.0260690379967
 30
0.0
  0
SEQEND
  5
CAE
  8
SLD-0
  0
POLYLINE
  5
82
  8
SLD-0
 66
     1
 10
0.0
 20
0.0
 30
0.0
 70
     1
  0
VERTEX
  5
1FE
  8
SLD-0
 10
103.1727255297556
 20
161.2506426117347
 30
0.0
  0
VERTEX
  5
1FF
  8
SLD-0
 10
103.1298679951139
 20
161.2391589699379
 30
0.0
  0
VERTEX
  5
200
  8
SLD-0
 10
102.7901362357932
 20
162.5070551566678
 30
0.0
  0
VERTEX
  5
201
  8
SLD-0
 10
102.3850902497554
 20
162.823608081091
 30
0.0
  0
VERTEX
  5
202
  8
SLD-0
 10
102.1938744208518
 20
162.3472872848767
 30
0.0
  0
VERTEX
  5
203
  8
SLD-0
 10
102.3052601288462
 20
161.9315901634047
 30
0.0
  0
VERTEX
  5
204
  8
SLD-0
 10
102.2623726448442
 20
161.920098496701
 30
0.0
  0
VERTEX
  5
205
  8
SLD-0
 10
102.1509869368498
 20
162.335795618173
 30
0.0
  0
VERTEX
  5
206
  8
SLD-0
 10
101.7472587226668
 20
162.6527016385005
 30
0.0
  0
VERTEX
  5
207
  8
SLD-0
 10
101.5560428937632
 20
162.1763808422862
 30
0.0
  0
VERTEX
  5
208
  8
SLD-0
 10
101.895774653084
 20
160.9084846555564
 30
0.0
  0
VERTEX
  5
209
  8
SLD-0
 10
101.852887169082
 20
160.8969929888526
 30
0.0
  0
VERTEX
  5
20A
  8
SLD-0
 10
101.3965374624576
 20
162.6001132799939
 30
0.0
  0
VERTEX
  5
20B
  8
SLD-0
 10
101.4394249464596
 20
162.6116049466977
 30
0.0
  0
VERTEX
  5
20C
  8
SLD-0
 10
101.5350604371468
 20
162.2546884364463
 30
0.0
  0
VERTEX
  5
20D
  8
SLD-0
 10
101.7262334665468
 20
162.7311689625824
 30
0.0
  0
VERTEX
  5
20E
  8
SLD-0
 10
102.1599929166913
 20
162.3905953555463
 30
0.0
  0
VERTEX
  5
20F
  8
SLD-0
 10
102.3640649936354
 20
162.9020754051729
 30
0.0
  0
VERTEX
  5
210
  8
SLD-0
 10
102.8273335360901
 20
162.539663080622
 30
0.0
  0
SEQEND
  5
CAF
  8
SLD-0
  0
POLYLINE
  5
83
  8
SLD-0
 66
     1
 10
0.0
 20
0.0
 30
0.0
 70
     1
  0
VERTEX
  5
211
  8
SLD-0
 10
93.98820022691758
 20
163.5272029325395
 30
0.0
  0
VERTEX
  5
212
  8
SLD-0
 10
93.77402595656511
 20
162.9962814024585
 30
0.0
  0
VERTEX
  5
213
  8
SLD-0
 10
93.43886266503823
 20
162.9064746691613
 30
0.0
  0
VERTEX
  5
214
  8
SLD-0
 10
92.98792154103549
 20
163.2591790664513
 30
0.0
  0
VERTEX
  5
215
  8
SLD-0
 10
92.52598649919757
 20
164.9831441123869
 30
0.0
  0
VERTEX
  5
216
  8
SLD-0
 10
92.73968997501096
 20
165.5158226716076
 30
0.0
  0
VERTEX
  5
217
  8
SLD-0
 10
93.07485326653786
 20
165.6056294049048
 30
0.0
  0
VERTEX
  5
218
  8
SLD-0
 10
93.52626518507967
 20
165.2511679784751
 30
0.0
  0
SEQEND
  5
CB0
  8
SLD-0
  0
POLYLINE
  5
84
  8
SLD-0
 66
     1
 10
0.0
 20
0.0
 30
0.0
 70
     1
  0
VERTEX
  5
219
  8
SLD-0
 10
93.93991785520068
 20
163.5359650583302
 30
0.0
  0
VERTEX
  5
21A
  8
SLD-0
 10
93.48927118242463
 20
165.2178013373923
 30
0.0
  0
VERTEX
  5
21B
  8
SLD-0
 10
93.07447342292382
 20
165.5447523310712
 30
0.0
  0
VERTEX
  5
21C
  8
SLD-0
 10
92.77048741550733
 20
165.4632995258736
 30
0.0
  0
VERTEX
  5
21D
  8
SLD-0
 10
92.57473751518623
 20
164.9727527798047
 30
0.0
  0
VERTEX
  5
21E
  8
SLD-0
 10
93.02538418796227
 20
163.2909165007426
 30
0.0
  0
VERTEX
  5
21F
  8
SLD-0
 10
93.43973255267578
 20
162.9656426712425
 30
0.0
  0
VERTEX
  5
220
  8
SLD-0
 10
93.74371856009228
 20
163.0470954764401
 30
0.0
  0
SEQEND
  5
CB1
  8
SLD-0
  0
POLYLINE
  5
85
  8
SLD-0
 66
     1
 10
0.0
 20
0.0
 30
0.0
 70
     1
  0
VERTEX
  5
221
  8
SLD-0
 10
94.74092158862064
 20
163.2827519885063
 30
0.0
  0
VERTEX
  5
222
  8
SLD-0
 10
94.69803410461863
 20
163.2712603218025
 30
0.0
  0
VERTEX
  5
223
  8
SLD-0
 10
94.58367383112738
 20
163.6980586728393
 30
0.0
  0
VERTEX
  5
224
  8
SLD-0
 10
94.62656131512941
 20
163.7095503395431
 30
0.0
  0
SEQEND
  5
CB2
  8
SLD-0
  0
POLYLINE
  5
86
  8
SLD-0
 66
     1
 10
0.0
 20
0.0
 30
0.0
 70
     1
  0
VERTEX
  5
225
  8
SLD-0
 10
96.2024570953817
 20
165.4891537968689
 30
0.0
  0
VERTEX
  5
226
  8
SLD-0
 10
95.98875361956831
 20
164.9564752376481
 30
0.0
  0
VERTEX
  5
227
  8
SLD-0
 10
95.34963426998529
 20
164.7852237240602
 30
0.0
  0
VERTEX
  5
228
  8
SLD-0
 10
95.15345637462865
 20
164.2962742772093
 30
0.0
  0
VERTEX
  5
229
  8
SLD-0
 10
95.37119884895
 20
163.4836483000762
 30
0.0
  0
VERTEX
  5
22A
  8
SLD-0
 10
96.62607704705353
 20
163.8198918998575
 30
0.0
  0
VERTEX
  5
22B
  8
SLD-0
 10
96.64092847478611
 20
163.7644656169946
 30
0.0
  0
VERTEX
  5
22C
  8
SLD-0
 10
95.34316279268057
 20
163.4167303505095
 30
0.0
  0
VERTEX
  5
22D
  8
SLD-0
 10
95.10499425528897
 20
164.3055874328194
 30
0.0
  0
VERTEX
  5
22E
  8
SLD-0
 10
95.31870843097826
 20
164.8382260595597
 30
0.0
  0
VERTEX
  5
22F
  8
SLD-0
 10
95.95653995806681
 20
165.0091325021502
 30
0.0
  0
VERTEX
  5
230
  8
SLD-0
 10
96.15356483073919
 20
165.5001920740452
 30
0.0
  0
VERTEX
  5
231
  8
SLD-0
 10
96.04538908551123
 20
165.9039094513825
 30
0.0
  0
VERTEX
  5
232
  8
SLD-0
 10
95.62923075465206
 20
166.2306670790789
 30
0.0
  0
VERTEX
  5
233
  8
SLD-0
 10
95.00700284429887
 20
166.0639416129917
 30
0.0
  0
VERTEX
  5
234
  8
SLD-0
 10
94.80758939989504
 20
165.5610713548031
 30
0.0
  0
VERTEX
  5
235
  8
SLD-0
 10
94.76526284510932
 20
165.5943270713312
 30
0.0
  0
VERTEX
  5
236
  8
SLD-0
 10
94.97654779983091
 20
166.1151869193514
 30
0.0
  0
VERTEX
  5
237
  8
SLD-0
 10
95.63127076614931
 20
166.2906194094425
 30
0.0
  0
VERTEX
  5
238
  8
SLD-0
 10
96.08268268469112
 20
165.9361579830127
 30
0.0
  0
SEQEND
  5
CB3
  8
SLD-0
  0
POLYLINE
  5
87
  8
SLD-0
 66
     1
 10
0.0
 20
0.0
 30
0.0
 70
     1
  0
VERTEX
  5
239
  8
SLD-0
 10
98.32989787854825
 20
165.1281822358944
 30
0.0
  0
VERTEX
  5
23A
  8
SLD-0
 10
98.03241088232481
 20
165.0484708354975
 30
0.0
  0
VERTEX
  5
23B
  8
SLD-0
 10
98.2533526195367
 20
164.2239050467103
 30
0.0
  0
VERTEX
  5
23C
  8
SLD-0
 10
98.21049508489502
 20
164.2124214049134
 30
0.0
  0
VERTEX
  5
23D
  8
SLD-0
 10
97.98955334768314
 20
165.0369871937007
 30
0.0
  0
VERTEX
  5
23E
  8
SLD-0
 10
97.01005951787465
 20
164.7745326130123
 30
0.0
  0
VERTEX
  5
23F
  8
SLD-0
 10
97.54596242482742
 20
166.8639211941413
 30
0.0
  0
VERTEX
  5
240
  8
SLD-0
 10
98.01755945459223
 20
165.1038971183605
 30
0.0
  0
VERTEX
  5
241
  8
SLD-0
 10
98.31504645081567
 20
165.1836085187573
 30
0.0
  0
SEQEND
  5
CB4
  8
SLD-0
  0
POLYLINE
  5
88
  8
SLD-0
 66
     1
 10
0.0
 20
0.0
 30
0.0
 70
     1
  0
VERTEX
  5
242
  8
SLD-0
 10
97.97472331970233
 20
165.0923336116028
 30
0.0
  0
VERTEX
  5
243
  8
SLD-0
 10
97.54867566159287
 20
166.682365118113
 30
0.0
  0
VERTEX
  5
244
  8
SLD-0
 10
97.08097450853754
 20
164.8528543394148
 30
0.0
  0
SEQEND
  5
CB5
  8
SLD-0
  0
POLYLINE
  5
89
  8
SLD-0
 66
     1
 10
0.0
 20
0.0
 30
0.0
 70
     1
  0
VERTEX
  5
245
  8
SLD-0
 10
99.21272047919898
 20
164.4809668899512
 30
0.0
  0
VERTEX
  5
246
  8
SLD-0
 10
99.16983299519697
 20
164.4694752232474
 30
0.0
  0
VERTEX
  5
247
  8
SLD-0
 10
98.71361168708326
 20
166.1721163246233
 30
0.0
  0
VERTEX
  5
248
  8
SLD-0
 10
98.75649917108527
 20
166.1836079913271
 30
0.0
  0
SEQEND
  5
CB6
  8
SLD-0
  0
POLYLINE
  5
8A
  8
SLD-0
 66
     1
 10
0.0
 20
0.0
 30
0.0
 70
     1
  0
VERTEX
  5
249
  8
SLD-0
 10
98.64209609809048
 20
166.6105660722856
 30
0.0
  0
VERTEX
  5
24A
  8
SLD-0
 10
98.59920861408847
 20
166.5990744055819
 30
0.0
  0
VERTEX
  5
24B
  8
SLD-0
 10
98.48504093836321
 20
167.0251539719706
 30
0.0
  0
VERTEX
  5
24C
  8
SLD-0
 10
98.52792842236522
 20
167.0366456386743
 30
0.0
  0
SEQEND
  5
CB7
  8
SLD-0
  0
POLYLINE
  5
8B
  8
SLD-0
 66
     1
 10
0.0
 20
0.0
 30
0.0
 70
     1
  0
VERTEX
  5
24D
  8
SLD-0
 10
101.1279521233642
 20
164.9941516623238
 30
0.0
  0
VERTEX
  5
24E
  8
SLD-0
 10
101.0850945887225
 20
164.9826680205269
 30
0.0
  0
VERTEX
  5
24F
  8
SLD-0
 10
100.7453628294018
 20
166.2505642072568
 30
0.0
  0
VERTEX
  5
250
  8
SLD-0
 10
100.3297073927093
 20
166.5754450083721
 30
0.0
  0
VERTEX
  5
251
  8
SLD-0
 10
100.0270391571476
 20
166.4943452990788
 30
0.0
  0
VERTEX
  5
252
  8
SLD-0
 10
99.62544786297298
 20
165.4937703940061
 30
0.0
  0
VERTEX
  5
253
  8
SLD-0
 10
99.85100124669259
 20
164.6519937061454
 30
0.0
  0
VERTEX
  5
254
  8
SLD-0
 10
99.80811376269058
 20
164.6405020394417
 30
0.0
  0
VERTEX
  5
255
  8
SLD-0
 10
99.35172125656266
 20
166.3437820605048
 30
0.0
  0
VERTEX
  5
256
  8
SLD-0
 10
99.39460874056468
 20
166.3552737272085
 30
0.0
  0
VERTEX
  5
257
  8
SLD-0
 10
99.60446540635655
 20
165.5720779881662
 30
0.0
  0
VERTEX
  5
258
  8
SLD-0
 10
99.99597206948675
 20
166.5479945791723
 30
0.0
  0
VERTEX
  5
259
  8
SLD-0
 10
100.3311054116533
 20
166.6377932875626
 30
0.0
  0
VERTEX
  5
25A
  8
SLD-0
 10
100.7825173301951
 20
166.2833318611328
 30
0.0
  0
SEQEND
  5
CB8
  8
SLD-0
  0
POLYLINE
  5
8C
  8
SLD-0
 66
     1
 10
0.0
 20
0.0
 30
0.0
 70
     1
  0
VERTEX
  5
25B
  8
SLD-0
 10
154.3604218755329
 20
207.1772381394615
 30
0.0
  0
VERTEX
  5
25C
  8
SLD-0
 10
154.6740152627329
 20
206.6982731337576
 30
0.0
  0
VERTEX
  5
25D
  8
SLD-0
 10
154.5563821544428
 20
206.371834574199
 30
0.0
  0
VERTEX
  5
25E
  8
SLD-0
 10
154.009351534743
 20
206.2029979955337
 30
0.0
  0
VERTEX
  5
25F
  8
SLD-0
 10
152.3302635183891
 20
206.8080623688215
 30
0.0
  0
VERTEX
  5
260
  8
SLD-0
 10
152.0149588397799
 20
207.2876440434874
 30
0.0
  0
VERTEX
  5
261
  8
SLD-0
 10
152.1325919480699
 20
207.6140826030459
 30
0.0
  0
VERTEX
  5
262
  8
SLD-0
 10
152.681333859179
 20
207.7823025127493
 30
0.0
  0
SEQEND
  5
CB9
  8
SLD-0
  0
POLYLINE
  5
8D
  8
SLD-0
 66
     1
 10
0.0
 20
0.0
 30
0.0
 70
     1
  0
VERTEX
  5
263
  8
SLD-0
 10
154.3256613139901
 20
207.1426019498874
 30
0.0
  0
VERTEX
  5
264
  8
SLD-0
 10
152.6876053984713
 20
207.7328802832924
 30
0.0
  0
VERTEX
  5
265
  8
SLD-0
 10
152.182354059569
 20
207.5790127490561
 30
0.0
  0
VERTEX
  5
266
  8
SLD-0
 10
152.0756633215524
 20
207.2829398887649
 30
0.0
  0
VERTEX
  5
267
  8
SLD-0
 10
152.3666292037841
 20
206.8421531047847
 30
0.0
  0
VERTEX
  5
268
  8
SLD-0
 10
154.0046851193029
 20
206.2518747713796
 30
0.0
  0
VERTEX
  5
269
  8
SLD-0
 10
154.5083029527691
 20
206.4063309441705
 30
0.0
  0
VERTEX
  5
26A
  8
SLD-0
 10
154.6149936907858
 20
206.7024038044617
 30
0.0
  0
SEQEND
  5
CBA
  8
SLD-0
  0
POLYLINE
  5
8E
  8
SLD-0
 66
     1
 10
0.0
 20
0.0
 30
0.0
 70
     1
  0
VERTEX
  5
26B
  8
SLD-0
 10
154.99088098927
 20
207.6556386184627
 30
0.0
  0
VERTEX
  5
26C
  8
SLD-0
 10
154.9758286605174
 20
207.6138675508827
 30
0.0
  0
VERTEX
  5
26D
  8
SLD-0
 10
154.5601404200191
 20
207.7636620478182
 30
0.0
  0
VERTEX
  5
26E
  8
SLD-0
 10
154.5751927487718
 20
207.8054331153982
 30
0.0
  0
SEQEND
  5
CBB
  8
SLD-0
  0
POLYLINE
  5
8F
  8
SLD-0
 66
     1
 10
0.0
 20
0.0
 30
0.0
 70
     1
  0
VERTEX
  5
26F
  8
SLD-0
 10
155.145497524891
 20
209.3558676753663
 30
0.0
  0
VERTEX
  5
270
  8
SLD-0
 10
155.459090912091
 20
208.8769026696623
 30
0.0
  0
VERTEX
  5
271
  8
SLD-0
 10
155.341457803801
 20
208.5504641101038
 30
0.0
  0
VERTEX
  5
272
  8
SLD-0
 10
154.7944271841012
 20
208.3816275314385
 30
0.0
  0
VERTEX
  5
273
  8
SLD-0
 10
153.1153391677473
 20
208.9866919047263
 30
0.0
  0
VERTEX
  5
274
  8
SLD-0
 10
152.800034489138
 20
209.4662735793922
 30
0.0
  0
VERTEX
  5
275
  8
SLD-0
 10
152.917667597428
 20
209.7927121389507
 30
0.0
  0
VERTEX
  5
276
  8
SLD-0
 10
153.4664095085371
 20
209.9609320486541
 30
0.0
  0
SEQEND
  5
CBC
  8
SLD-0
  0
POLYLINE
  5
90
  8
SLD-0
 66
     1
 10
0.0
 20
0.0
 30
0.0
 70
     1
  0
VERTEX
  5
277
  8
SLD-0
 10
155.1107369633483
 20
209.3212314857922
 30
0.0
  0
VERTEX
  5
278
  8
SLD-0
 10
153.4726810478295
 20
209.9115098191972
 30
0.0
  0
VERTEX
  5
279
  8
SLD-0
 10
152.9674297089272
 20
209.7576422849609
 30
0.0
  0
VERTEX
  5
27A
  8
SLD-0
 10
152.8607389709106
 20
209.4615694246697
 30
0.0
  0
VERTEX
  5
27B
  8
SLD-0
 10
153.1517048531423
 20
209.0207826406894
 30
0.0
  0
VERTEX
  5
27C
  8
SLD-0
 10
154.789760768661
 20
208.4305043072844
 30
0.0
  0
VERTEX
  5
27D
  8
SLD-0
 10
155.2933786021273
 20
208.5849604800752
 30
0.0
  0
VERTEX
  5
27E
  8
SLD-0
 10
155.4000693401439
 20
208.8810333403665
 30
0.0
  0
SEQEND
  5
CBD
  8
SLD-0
  0
POLYLINE
  5
91
  8
SLD-0
 66
     1
 10
0.0
 20
0.0
 30
0.0
 70
     1
  0
VERTEX
  5
27F
  8
SLD-0
 10
155.8187108260745
 20
211.2240728389342
 30
0.0
  0
VERTEX
  5
280
  8
SLD-0
 10
156.1323042132745
 20
210.7451078332302
 30
0.0
  0
VERTEX
  5
281
  8
SLD-0
 10
155.9025144375325
 20
210.1074281486167
 30
0.0
  0
VERTEX
  5
282
  8
SLD-0
 10
155.3554838178327
 20
209.9385915699514
 30
0.0
  0
VERTEX
  5
283
  8
SLD-0
 10
154.0898282487557
 20
210.3946743281171
 30
0.0
  0
VERTEX
  5
284
  8
SLD-0
 10
153.4732583017242
 20
211.3345079126999
 30
0.0
  0
VERTEX
  5
285
  8
SLD-0
 10
153.5876959435751
 20
211.6520788713197
 30
0.0
  0
VERTEX
  5
286
  8
SLD-0
 10
153.6416794089393
 20
211.6326257686114
 30
0.0
  0
VERTEX
  5
287
  8
SLD-0
 10
153.5327076965237
 20
211.3302230747553
 30
0.0
  0
VERTEX
  5
288
  8
SLD-0
 10
154.1268162219359
 20
210.4285408208214
 30
0.0
  0
VERTEX
  5
289
  8
SLD-0
 10
154.5031447600217
 20
210.2929297100104
 30
0.0
  0
VERTEX
  5
28A
  8
SLD-0
 10
154.8346008232609
 20
211.2127391192286
 30
0.0
  0
VERTEX
  5
28B
  8
SLD-0
 10
155.3833038413834
 20
211.3809730441356
 30
0.0
  0
SEQEND
  5
CBE
  8
SLD-0
  0
POLYLINE
  5
92
  8
SLD-0
 66
     1
 10
0.0
 20
0.0
 30
0.0
 70
     1
  0
VERTEX
  5
28C
  8
SLD-0
 10
155.7839502645317
 20
211.18943664936
 30
0.0
  0
VERTEX
  5
28D
  8
SLD-0
 10
155.3892253437966
 20
211.3316769515118
 30
0.0
  0
VERTEX
  5
28E
  8
SLD-0
 10
154.8851839015955
 20
211.1759232949604
 30
0.0
  0
VERTEX
  5
28F
  8
SLD-0
 10
154.5596562695131
 20
210.2725656190629
 30
0.0
  0
VERTEX
  5
290
  8
SLD-0
 10
155.3508174023926
 20
209.9874683457973
 30
0.0
  0
VERTEX
  5
291
  8
SLD-0
 10
155.8544352358588
 20
210.1419245185882
 30
0.0
  0
VERTEX
  5
292
  8
SLD-0
 10
156.0728201396059
 20
210.7479550353774
 30
0.0
  0
SEQEND
  5
CBF
  8
SLD-0
  0
POLYLINE
  5
93
  8
SLD-0
 66
     1
 10
0.0
 20
0.0
 30
0.0
 70
     1
  0
VERTEX
  5
293
  8
SLD-0
 10
156.4486864152847
 20
211.7011315098986
 30
0.0
  0
VERTEX
  5
294
  8
SLD-0
 10
156.433634086532
 20
211.6593604423186
 30
0.0
  0
VERTEX
  5
295
  8
SLD-0
 10
154.7753149250084
 20
212.256940696841
 30
0.0
  0
VERTEX
  5
296
  8
SLD-0
 10
154.7903672537611
 20
212.2987117644211
 30
0.0
  0
SEQEND
  5
CC0
  8
SLD-0
  0
POLYLINE
  5
94
  8
SLD-0
 66
     1
 10
0.0
 20
0.0
 30
0.0
 70
     1
  0
VERTEX
  5
297
  8
SLD-0
 10
154.3745234413165
 20
212.4485623221713
 30
0.0
  0
VERTEX
  5
298
  8
SLD-0
 10
154.3594711125638
 20
212.4067912545913
 30
0.0
  0
VERTEX
  5
299
  8
SLD-0
 10
153.9444829458239
 20
212.5563334778605
 30
0.0
  0
VERTEX
  5
29A
  8
SLD-0
 10
153.9595352745766
 20
212.5981045454405
 30
0.0
  0
SEQEND
  5
CC1
  8
SLD-0
  0
POLYLINE
  5
95
  8
SLD-0
 66
     1
 10
0.0
 20
0.0
 30
0.0
 70
     1
  0
VERTEX
  5
29B
  8
SLD-0
 10
157.1208801104004
 20
213.5665072086932
 30
0.0
  0
VERTEX
  5
29C
  8
SLD-0
 10
157.1058382930505
 20
213.5247653108531
 30
0.0
  0
VERTEX
  5
29D
  8
SLD-0
 10
155.8709470763532
 20
213.9697620429077
 30
0.0
  0
VERTEX
  5
29E
  8
SLD-0
 10
155.3669056341521
 20
213.8140083863563
 30
0.0
  0
VERTEX
  5
29F
  8
SLD-0
 10
155.260677397857
 20
213.519218994622
 30
0.0
  0
VERTEX
  5
2A0
  8
SLD-0
 10
155.8528412739406
 20
212.6182375008721
 30
0.0
  0
VERTEX
  5
2A1
  8
SLD-0
 10
156.6727054309113
 20
212.3227970072904
 30
0.0
  0
VERTEX
  5
2A2
  8
SLD-0
 10
156.6576531021586
 20
212.2810259397104
 30
0.0
  0
VERTEX
  5
2A3
  8
SLD-0
 10
154.9987116528498
 20
212.8788304374918
 30
0.0
  0
VERTEX
  5
2A4
  8
SLD-0
 10
155.0137639816025
 20
212.9206015050718
 30
0.0
  0
VERTEX
  5
2A5
  8
SLD-0
 10
155.7765721272698
 20
212.6457213152892
 30
0.0
  0
VERTEX
  5
2A6
  8
SLD-0
 10
155.1988944238632
 20
213.5243447447874
 30
0.0
  0
VERTEX
  5
2A7
  8
SLD-0
 10
155.3165170207504
 20
213.850754134606
 30
0.0
  0
VERTEX
  5
2A8
  8
SLD-0
 10
155.8652589318595
 20
214.0189740443094
 30
0.0
  0
SEQEND
  5
CC2
  8
SLD-0
  0
POLYLINE
  5
96
  8
SLD-0
 66
     1
 10
0.0
 20
0.0
 30
0.0
 70
     1
  0
VERTEX
  5
2A9
  8
SLD-0
 10
156.0522789005208
 20
203.7839478305627
 30
0.0
  0
VERTEX
  5
2AA
  8
SLD-0
 10
156.3674280071838
 20
203.3044222167115
 30
0.0
  0
VERTEX
  5
2AB
  8
SLD-0
 10
156.1581564896298
 20
202.7236818644417
 30
0.0
  0
VERTEX
  5
2AC
  8
SLD-0
 10
157.6763081596954
 20
203.1915722551042
 30
0.0
  0
VERTEX
  5
2AD
  8
SLD-0
 10
157.7058533884451
 20
203.1466167288057
 30
0.0
  0
VERTEX
  5
2AE
  8
SLD-0
 10
156.1388439140256
 20
202.6663080607839
 30
0.0
  0
VERTEX
  5
2AF
  8
SLD-0
 10
156.0371776265283
 20
202.3841783361792
 30
0.0
  0
VERTEX
  5
2B0
  8
SLD-0
 10
157.2534779956434
 20
201.9458808714839
 30
0.0
  0
VERTEX
  5
2B1
  8
SLD-0
 10
157.2384256668907
 20
201.9041098039039
 30
0.0
  0
VERTEX
  5
2B2
  8
SLD-0
 10
154.7218938636348
 20
202.8109495428368
 30
0.0
  0
VERTEX
  5
2B3
  8
SLD-0
 10
155.0684022556268
 20
203.772530019635
 30
0.0
  0
VERTEX
  5
2B4
  8
SLD-0
 10
155.6169885947895
 20
203.9408059901531
 30
0.0
  0
SEQEND
  5
CC3
  8
SLD-0
  0
POLYLINE
  5
97
  8
SLD-0
 66
     1
 10
0.0
 20
0.0
 30
0.0
 70
     1
  0
VERTEX
  5
2B5
  8
SLD-0
 10
156.0165071213272
 20
203.7496760362842
 30
0.0
  0
VERTEX
  5
2B6
  8
SLD-0
 10
155.6234157060282
 20
203.8913276998814
 30
0.0
  0
VERTEX
  5
2B7
  8
SLD-0
 10
155.1177018654044
 20
203.7361766970882
 30
0.0
  0
VERTEX
  5
2B8
  8
SLD-0
 10
154.792174233322
 20
202.8328190211907
 30
0.0
  0
VERTEX
  5
2B9
  8
SLD-0
 10
155.981482869755
 20
202.4042481078495
 30
0.0
  0
VERTEX
  5
2BA
  8
SLD-0
 10
156.3070105018374
 20
203.307605783747
 30
0.0
  0
SEQEND
  5
CC4
  8
SLD-0
  0
POLYLINE
  5
98
  8
SLD-0
 66
     1
 10
0.0
 20
0.0
 30
0.0
 70
     1
  0
VERTEX
  5
2BB
  8
SLD-0
 10
158.1676657147766
 20
204.4047586484409
 30
0.0
  0
VERTEX
  5
2BC
  8
SLD-0
 10
157.9433418684699
 20
203.782247228591
 30
0.0
  0
VERTEX
  5
2BD
  8
SLD-0
 10
157.8893584031058
 20
203.8017003312994
 30
0.0
  0
VERTEX
  5
2BE
  8
SLD-0
 10
157.9942306684449
 20
204.0927268265827
 30
0.0
  0
VERTEX
  5
2BF
  8
SLD-0
 10
155.5995894851106
 20
204.9556429171815
 30
0.0
  0
VERTEX
  5
2C0
  8
SLD-0
 10
155.8697937120182
 20
204.5466273758274
 30
0.0
  0
VERTEX
  5
2C1
  8
SLD-0
 10
155.8183248497351
 20
204.5308655187951
 30
0.0
  0
VERTEX
  5
2C2
  8
SLD-0
 10
155.5108902662226
 20
205.0004593917355
 30
0.0
  0
VERTEX
  5
2C3
  8
SLD-0
 10
155.5213806461773
 20
205.0295707921858
 30
0.0
  0
VERTEX
  5
2C4
  8
SLD-0
 10
158.0088204954762
 20
204.1332144256058
 30
0.0
  0
VERTEX
  5
2C5
  8
SLD-0
 10
158.1136822494125
 20
204.4242117511492
 30
0.0
  0
SEQEND
  5
CC5
  8
SLD-0
  0
POLYLINE
  5
99
  8
SLD-0
 66
     1
 10
0.0
 20
0.0
 30
0.0
 70
     1
  0
VERTEX
  5
2C6
  8
SLD-0
 10
158.3749185333298
 20
205.0579420851542
 30
0.0
  0
VERTEX
  5
2C7
  8
SLD-0
 10
158.3598662045771
 20
205.0161710175742
 30
0.0
  0
VERTEX
  5
2C8
  8
SLD-0
 10
157.9441779640788
 20
205.1659655145097
 30
0.0
  0
VERTEX
  5
2C9
  8
SLD-0
 10
157.9592302928315
 20
205.2077365820897
 30
0.0
  0
SEQEND
  5
CC6
  8
SLD-0
  0
POLYLINE
  5
9A
  8
SLD-0
 66
     1
 10
0.0
 20
0.0
 30
0.0
 70
     1
  0
VERTEX
  5
2CA
  8
SLD-0
 10
158.6416917364027
 20
207.0694122671127
 30
0.0
  0
VERTEX
  5
2CB
  8
SLD-0
 10
158.9552851236027
 20
206.5904472614087
 30
0.0
  0
VERTEX
  5
2CC
  8
SLD-0
 10
158.7254953478607
 20
205.9527675767952
 30
0.0
  0
VERTEX
  5
2CD
  8
SLD-0
 10
158.1784647281609
 20
205.7839309981299
 30
0.0
  0
VERTEX
  5
2CE
  8
SLD-0
 10
156.912809159084
 20
206.2400137562956
 30
0.0
  0
VERTEX
  5
2CF
  8
SLD-0
 10
156.2962392120525
 20
207.1798473408785
 30
0.0
  0
VERTEX
  5
2D0
  8
SLD-0
 10
156.4106768539034
 20
207.4974182994983
 30
0.0
  0
VERTEX
  5
2D1
  8
SLD-0
 10
156.4646603192675
 20
207.4779651967899
 30
0.0
  0
VERTEX
  5
2D2
  8
SLD-0
 10
156.3556886068519
 20
207.1755625029338
 30
0.0
  0
VERTEX
  5
2D3
  8
SLD-0
 10
156.9497971322642
 20
206.2738802489999
 30
0.0
  0
VERTEX
  5
2D4
  8
SLD-0
 10
157.32612567035
 20
206.1382691381889
 30
0.0
  0
VERTEX
  5
2D5
  8
SLD-0
 10
157.6575817335892
 20
207.0580785474071
 30
0.0
  0
VERTEX
  5
2D6
  8
SLD-0
 10
158.2062847517116
 20
207.2263124723142
 30
0.0
  0
SEQEND
  5
CC7
  8
SLD-0
  0
POLYLINE
  5
9B
  8
SLD-0
 66
     1
 10
0.0
 20
0.0
 30
0.0
 70
     1
  0
VERTEX
  5
2D7
  8
SLD-0
 10
158.60693117486
 20
207.0347760775386
 30
0.0
  0
VERTEX
  5
2D8
  8
SLD-0
 10
158.2122062541249
 20
207.1770163796904
 30
0.0
  0
VERTEX
  5
2D9
  8
SLD-0
 10
157.7081648119238
 20
207.0212627231389
 30
0.0
  0
VERTEX
  5
2DA
  8
SLD-0
 10
157.3826371798413
 20
206.1179050472414
 30
0.0
  0
VERTEX
  5
2DB
  8
SLD-0
 10
158.1737983127208
 20
205.8328077739758
 30
0.0
  0
VERTEX
  5
2DC
  8
SLD-0
 10
158.677416146187
 20
205.9872639467667
 30
0.0
  0
VERTEX
  5
2DD
  8
SLD-0
 10
158.8958010499341
 20
206.593294463556
 30
0.0
  0
SEQEND
  5
CC8
  8
SLD-0
  0
POLYLINE
  5
9C
  8
SLD-0
 66
     1
 10
0.0
 20
0.0
 30
0.0
 70
     1
  0
VERTEX
  5
2DE
  8
SLD-0
 10
159.2022648456072
 20
208.6250344975888
 30
0.0
  0
VERTEX
  5
2DF
  8
SLD-0
 10
159.5158582328072
 20
208.1460694918849
 30
0.0
  0
VERTEX
  5
2E0
  8
SLD-0
 10
159.3982251245172
 20
207.8196309323263
 30
0.0
  0
VERTEX
  5
2E1
  8
SLD-0
 10
158.8511945048174
 20
207.650794353661
 30
0.0
  0
VERTEX
  5
2E2
  8
SLD-0
 10
157.1721064884635
 20
208.2558587269488
 30
0.0
  0
VERTEX
  5
2E3
  8
SLD-0
 10
156.8568018098542
 20
208.7354404016147
 30
0.0
  0
VERTEX
  5
2E4
  8
SLD-0
 10
156.9744349181443
 20
209.0618789611732
 30
0.0
  0
VERTEX
  5
2E5
  8
SLD-0
 10
157.5231768292533
 20
209.2300988708766
 30
0.0
  0
SEQEND
  5
CC9
  8
SLD-0
  0
POLYLINE
  5
9D
  8
SLD-0
 66
     1
 10
0.0
 20
0.0
 30
0.0
 70
     1
  0
VERTEX
  5
2E6
  8
SLD-0
 10
159.1675042840645
 20
208.5903983080147
 30
0.0
  0
VERTEX
  5
2E7
  8
SLD-0
 10
157.5294483685457
 20
209.1806766414197
 30
0.0
  0
VERTEX
  5
2E8
  8
SLD-0
 10
157.0241970296434
 20
209.0268091071835
 30
0.0
  0
VERTEX
  5
2E9
  8
SLD-0
 10
156.9175062916268
 20
208.7307362468922
 30
0.0
  0
VERTEX
  5
2EA
  8
SLD-0
 10
157.2084721738585
 20
208.289949462912
 30
0.0
  0
VERTEX
  5
2EB
  8
SLD-0
 10
158.8465280893773
 20
207.6996711295069
 30
0.0
  0
VERTEX
  5
2EC
  8
SLD-0
 10
159.3501459228435
 20
207.8541273022978
 30
0.0
  0
VERTEX
  5
2ED
  8
SLD-0
 10
159.4568366608601
 20
208.150200162589
 30
0.0
  0
SEQEND
  5
CCA
  8
SLD-0
  0
POLYLINE
  5
9E
  8
SLD-0
 66
     1
 10
0.0
 20
0.0
 30
0.0
 70
     1
  0
VERTEX
  5
2EE
  8
SLD-0
 10
160.2808986388335
 20
210.3471451779928
 30
0.0
  0
VERTEX
  5
2EF
  8
SLD-0
 10
160.2658568214836
 20
210.3054032801527
 30
0.0
  0
VERTEX
  5
2F0
  8
SLD-0
 10
159.0309656047864
 20
210.7504000122073
 30
0.0
  0
VERTEX
  5
2F1
  8
SLD-0
 10
158.5398187082014
 20
210.5986016896171
 30
0.0
  0
VERTEX
  5
2F2
  8
SLD-0
 10
158.8216940872324
 20
210.1696596599375
 30
0.0
  0
VERTEX
  5
2F3
  8
SLD-0
 10
159.2265700774632
 20
210.0237613896251
 30
0.0
  0
VERTEX
  5
2F4
  8
SLD-0
 10
159.2115177487105
 20
209.9819903220451
 30
0.0
  0
VERTEX
  5
2F5
  8
SLD-0
 10
158.8066417584797
 20
210.1278885923575
 30
0.0
  0
VERTEX
  5
2F6
  8
SLD-0
 10
158.3159573636162
 20
209.9773737383242
 30
0.0
  0
VERTEX
  5
2F7
  8
SLD-0
 10
158.5978327426472
 20
209.5484317086446
 30
0.0
  0
VERTEX
  5
2F8
  8
SLD-0
 10
159.8327239593444
 20
209.10343497659
 30
0.0
  0
VERTEX
  5
2F9
  8
SLD-0
 10
159.8176716305917
 20
209.06166390901
 30
0.0
  0
VERTEX
  5
2FA
  8
SLD-0
 10
158.1588857532292
 20
209.6594123459766
 30
0.0
  0
VERTEX
  5
2FB
  8
SLD-0
 10
158.1739380819819
 20
209.7011834135567
 30
0.0
  0
VERTEX
  5
2FC
  8
SLD-0
 10
158.5215635959764
 20
209.5759155230618
 30
0.0
  0
VERTEX
  5
2FD
  8
SLD-0
 10
158.2395326449991
 20
210.0049136135561
 30
0.0
  0
VERTEX
  5
2FE
  8
SLD-0
 10
158.7667941581507
 20
210.1665704697307
 30
0.0
  0
VERTEX
  5
2FF
  8
SLD-0
 10
158.4633939895843
 20
210.626141564849
 30
0.0
  0
VERTEX
  5
300
  8
SLD-0
 10
159.0254330322389
 20
210.7995559527943
 30
0.0
  0
SEQEND
  5
CCB
  8
SLD-0
  0
POLYLINE
  5
9F
  8
SLD-0
 66
     1
 10
0.0
 20
0.0
 30
0.0
 70
     1
  0
VERTEX
  5
301
  8
SLD-0
 10
160.95362841549
 20
212.2140085335239
 30
0.0
  0
VERTEX
  5
302
  8
SLD-0
 10
160.9385865981401
 20
212.1722666356838
 30
0.0
  0
VERTEX
  5
303
  8
SLD-0
 10
159.7036953814429
 20
212.6172633677384
 30
0.0
  0
VERTEX
  5
304
  8
SLD-0
 10
159.2125484848579
 20
212.4654650451482
 30
0.0
  0
VERTEX
  5
305
  8
SLD-0
 10
159.4944238638889
 20
212.0365230154686
 30
0.0
  0
VERTEX
  5
306
  8
SLD-0
 10
159.8992998541197
 20
211.8906247451562
 30
0.0
  0
VERTEX
  5
307
  8
SLD-0
 10
159.884247525367
 20
211.8488536775762
 30
0.0
  0
VERTEX
  5
308
  8
SLD-0
 10
159.4793715351362
 20
211.9947519478886
 30
0.0
  0
VERTEX
  5
309
  8
SLD-0
 10
158.9886871402727
 20
211.8442370938553
 30
0.0
  0
VERTEX
  5
30A
  8
SLD-0
 10
159.2705625193037
 20
211.4152950641757
 30
0.0
  0
VERTEX
  5
30B
  8
SLD-0
 10
160.5054537360009
 20
210.9702983321211
 30
0.0
  0
VERTEX
  5
30C
  8
SLD-0
 10
160.4904014072482
 20
210.9285272645411
 30
0.0
  0
VERTEX
  5
30D
  8
SLD-0
 10
158.8316155298857
 20
211.5262757015077
 30
0.0
  0
VERTEX
  5
30E
  8
SLD-0
 10
158.8466678586384
 20
211.5680467690877
 30
0.0
  0
VERTEX
  5
30F
  8
SLD-0
 10
159.1942933726329
 20
211.4427788785928
 30
0.0
  0
VERTEX
  5
310
  8
SLD-0
 10
158.9122624216556
 20
211.8717769690871
 30
0.0
  0
VERTEX
  5
311
  8
SLD-0
 10
159.4395239348072
 20
212.0334338252618
 30
0.0
  0
VERTEX
  5
312
  8
SLD-0
 10
159.1361237662408
 20
212.49300492038
 30
0.0
  0
VERTEX
  5
313
  8
SLD-0
 10
159.6981628088954
 20
212.6664193083254
 30
0.0
  0
SEQEND
  5
CCC
  8
SLD-0
  0
POLYLINE
  5
A0
  8
SLD-0
 66
     1
 10
0.0
 20
0.0
 30
0.0
 70
     1
  0
VERTEX
  5
314
  8
SLD-0
 10
170.5086061202246
 20
200.7015142349587
 30
0.0
  0
VERTEX
  5
315
  8
SLD-0
 10
170.5344082734815
 20
200.1296029323323
 30
0.0
  0
VERTEX
  5
316
  8
SLD-0
 10
170.2668667980369
 20
199.9086476421726
 30
0.0
  0
VERTEX
  5
317
  8
SLD-0
 10
169.7101414845016
 20
200.0420838233741
 30
0.0
  0
VERTEX
  5
318
  8
SLD-0
 10
168.5736232362933
 20
201.4182254345373
 30
0.0
  0
VERTEX
  5
319
  8
SLD-0
 10
168.5466627673938
 20
201.9915392719292
 30
0.0
  0
VERTEX
  5
31A
  8
SLD-0
 10
168.8142042428384
 20
202.2124945620889
 30
0.0
  0
VERTEX
  5
31B
  8
SLD-0
 10
169.3720878720163
 20
202.077655846122
 30
0.0
  0
SEQEND
  5
CCD
  8
SLD-0
  0
POLYLINE
  5
A1
  8
SLD-0
 66
     1
 10
0.0
 20
0.0
 30
0.0
 70
     1
  0
VERTEX
  5
31C
  8
SLD-0
 10
170.4610484732306
 20
200.6894215727464
 30
0.0
  0
VERTEX
  5
31D
  8
SLD-0
 10
169.3523034750885
 20
202.0319342253306
 30
0.0
  0
VERTEX
  5
31E
  8
SLD-0
 10
168.8391546895192
 20
202.156964051465
 30
0.0
  0
VERTEX
  5
31F
  8
SLD-0
 10
168.5965002372126
 20
201.9565622826221
 30
0.0
  0
VERTEX
  5
320
  8
SLD-0
 10
168.6222841297059
 20
201.4290309333713
 30
0.0
  0
VERTEX
  5
321
  8
SLD-0
 10
169.7310291278479
 20
200.0865182807871
 30
0.0
  0
VERTEX
  5
322
  8
SLD-0
 10
170.2430722484858
 20
199.9628272378378
 30
0.0
  0
VERTEX
  5
323
  8
SLD-0
 10
170.4857267007924
 20
200.1632290066807
 30
0.0
  0
SEQEND
  5
CCE
  8
SLD-0
  0
POLYLINE
  5
A2
  8
SLD-0
 66
     1
 10
0.0
 20
0.0
 30
0.0
 70
     1
  0
VERTEX
  5
324
  8
SLD-0
 10
171.2948432191398
 20
200.7919406508568
 30
0.0
  0
VERTEX
  5
325
  8
SLD-0
 10
171.2606086205484
 20
200.7636672190358
 30
0.0
  0
VERTEX
  5
326
  8
SLD-0
 10
170.9792432208252
 20
201.1043556638638
 30
0.0
  0
VERTEX
  5
327
  8
SLD-0
 10
171.0134778194166
 20
201.1326290956848
 30
0.0
  0
SEQEND
  5
CCF
  8
SLD-0
  0
POLYLINE
  5
A3
  8
SLD-0
 66
     1
 10
0.0
 20
0.0
 30
0.0
 70
     1
  0
VERTEX
  5
328
  8
SLD-0
 10
172.2941603797196
 20
202.1761553493763
 30
0.0
  0
VERTEX
  5
329
  8
SLD-0
 10
172.3199625329766
 20
201.6042440467499
 30
0.0
  0
VERTEX
  5
32A
  8
SLD-0
 10
172.0524210575319
 20
201.3832887565902
 30
0.0
  0
VERTEX
  5
32B
  8
SLD-0
 10
171.4956957439967
 20
201.5167249377917
 30
0.0
  0
VERTEX
  5
32C
  8
SLD-0
 10
170.3591774957884
 20
202.8928665489549
 30
0.0
  0
VERTEX
  5
32D
  8
SLD-0
 10
170.3322170268889
 20
203.4661803863468
 30
0.0
  0
VERTEX
  5
32E
  8
SLD-0
 10
170.5997585023335
 20
203.6871356765064
 30
0.0
  0
VERTEX
  5
32F
  8
SLD-0
 10
171.1576421315113
 20
203.5522969605396
 30
0.0
  0
SEQEND
  5
CD0
  8
SLD-0
  0
POLYLINE
  5
A4
  8
SLD-0
 66
     1
 10
0.0
 20
0.0
 30
0.0
 70
     1
  0
VERTEX
  5
330
  8
SLD-0
 10
172.2466027327257
 20
202.164062687164
 30
0.0
  0
VERTEX
  5
331
  8
SLD-0
 10
171.1378577345836
 20
203.5065753397481
 30
0.0
  0
VERTEX
  5
332
  8
SLD-0
 10
170.6247089490143
 20
203.6316051658826
 30
0.0
  0
VERTEX
  5
333
  8
SLD-0
 10
170.3820544967077
 20
203.4312033970397
 30
0.0
  0
VERTEX
  5
334
  8
SLD-0
 10
170.4078383892009
 20
202.9036720477889
 30
0.0
  0
VERTEX
  5
335
  8
SLD-0
 10
171.516583387343
 20
201.5611593952047
 30
0.0
  0
VERTEX
  5
336
  8
SLD-0
 10
172.0286265079808
 20
201.4374683522554
 30
0.0
  0
VERTEX
  5
337
  8
SLD-0
 10
172.2712809602874
 20
201.6378701210983
 30
0.0
  0
SEQEND
  5
CD1
  8
SLD-0
  0
POLYLINE
  5
A5
  8
SLD-0
 66
     1
 10
0.0
 20
0.0
 30
0.0
 70
     1
  0
VERTEX
  5
338
  8
SLD-0
 10
173.8252980203529
 20
203.4406806387667
 30
0.0
  0
VERTEX
  5
339
  8
SLD-0
 10
173.8511001736099
 20
202.8687693361402
 30
0.0
  0
VERTEX
  5
33A
  8
SLD-0
 10
173.3284726877109
 20
202.4371453884876
 30
0.0
  0
VERTEX
  5
33B
  8
SLD-0
 10
172.7717473741756
 20
202.5705815696891
 30
0.0
  0
VERTEX
  5
33C
  8
SLD-0
 10
171.9150676550708
 20
203.6078835318515
 30
0.0
  0
VERTEX
  5
33D
  8
SLD-0
 10
171.8633785743648
 20
204.7307254197538
 30
0.0
  0
VERTEX
  5
33E
  8
SLD-0
 10
172.1236523696615
 20
204.9456785288565
 30
0.0
  0
VERTEX
  5
33F
  8
SLD-0
 10
172.1601919631136
 20
204.9014349321666
 30
0.0
  0
VERTEX
  5
340
  8
SLD-0
 10
171.9123497259646
 20
204.696748711714
 30
0.0
  0
VERTEX
  5
341
  8
SLD-0
 10
171.9641497541716
 20
203.6181790180434
 30
0.0
  0
VERTEX
  5
342
  8
SLD-0
 10
172.2188738941156
 20
203.3097488728193
 30
0.0
  0
VERTEX
  5
343
  8
SLD-0
 10
172.9727283615623
 20
203.9323369493634
 30
0.0
  0
VERTEX
  5
344
  8
SLD-0
 10
173.5305856653846
 20
203.7975301091867
 30
0.0
  0
SEQEND
  5
CD2
  8
SLD-0
  0
POLYLINE
  5
A6
  8
SLD-0
 66
     1
 10
0.0
 20
0.0
 30
0.0
 70
     1
  0
VERTEX
  5
345
  8
SLD-0
 10
173.777740373359
 20
203.4285879765544
 30
0.0
  0
VERTEX
  5
346
  8
SLD-0
 10
173.5105643402573
 20
203.7520953705064
 30
0.0
  0
VERTEX
  5
347
  8
SLD-0
 10
172.9974956439009
 20
203.8748858009336
 30
0.0
  0
VERTEX
  5
348
  8
SLD-0
 10
172.257124635676
 20
203.2634333497715
 30
0.0
  0
VERTEX
  5
349
  8
SLD-0
 10
172.792635017522
 20
202.6150160271021
 30
0.0
  0
VERTEX
  5
34A
  8
SLD-0
 10
173.3046781381598
 20
202.4913249841528
 30
0.0
  0
VERTEX
  5
34B
  8
SLD-0
 10
173.8013666998467
 20
202.9015266737567
 30
0.0
  0
SEQEND
  5
CD3
  8
SLD-0
  0
POLYLINE
  5
A7
  8
SLD-0
 66
     1
 10
0.0
 20
0.0
 30
0.0
 70
     1
  0
VERTEX
  5
34C
  8
SLD-0
 10
174.6104354045089
 20
203.5301988298996
 30
0.0
  0
VERTEX
  5
34D
  8
SLD-0
 10
174.5762008059175
 20
203.5019253980786
 30
0.0
  0
VERTEX
  5
34E
  8
SLD-0
 10
173.4537402975531
 20
204.8610453373165
 30
0.0
  0
VERTEX
  5
34F
  8
SLD-0
 10
173.4879748961446
 20
204.8893187691375
 30
0.0
  0
SEQEND
  5
CD4
  8
SLD-0
  0
POLYLINE
  5
A8
  8
SLD-0
 66
     1
 10
0.0
 20
0.0
 30
0.0
 70
     1
  0
VERTEX
  5
350
  8
SLD-0
 10
173.2065041949993
 20
205.2301347171259
 30
0.0
  0
VERTEX
  5
351
  8
SLD-0
 10
173.1722695964079
 20
205.2018612853049
 30
0.0
  0
VERTEX
  5
352
  8
SLD-0
 10
172.8913780530839
 20
205.5419759659107
 30
0.0
  0
VERTEX
  5
353
  8
SLD-0
 10
172.9256126516754
 20
205.5702493977317
 30
0.0
  0
SEQEND
  5
CD5
  8
SLD-0
  0
POLYLINE
  5
A9
  8
SLD-0
 66
     1
 10
0.0
 20
0.0
 30
0.0
 70
     1
  0
VERTEX
  5
354
  8
SLD-0
 10
176.1392540814108
 20
204.7928089496764
 30
0.0
  0
VERTEX
  5
355
  8
SLD-0
 10
176.105043389662
 20
204.764555261872
 30
0.0
  0
VERTEX
  5
356
  8
SLD-0
 10
175.269187026768
 20
205.7766434740476
 30
0.0
  0
VERTEX
  5
357
  8
SLD-0
 10
174.7561183304116
 20
205.8994339044749
 30
0.0
  0
VERTEX
  5
358
  8
SLD-0
 10
174.514515779179
 20
205.6999008723639
 30
0.0
  0
VERTEX
  5
359
  8
SLD-0
 10
174.5649995396105
 20
204.6229249681995
 30
0.0
  0
VERTEX
  5
35A
  8
SLD-0
 10
175.119938033825
 20
203.9509833124198
 30
0.0
  0
VERTEX
  5
35B
  8
SLD-0
 10
175.0857034352336
 20
203.9227098805988
 30
0.0
  0
VERTEX
  5
35C
  8
SLD-0
 10
173.962821721181
 20
205.2823398324786
 30
0.0
  0
VERTEX
  5
35D
  8
SLD-0
 10
173.9970563197724
 20
205.3106132642996
 30
0.0
  0
VERTEX
  5
35E
  8
SLD-0
 10
174.5133755174494
 20
204.6854333926294
 30
0.0
  0
VERTEX
  5
35F
  8
SLD-0
 10
174.4639651062485
 20
205.735790127811
 30
0.0
  0
VERTEX
  5
360
  8
SLD-0
 10
174.7314826748505
 20
205.9567256739541
 30
0.0
  0
VERTEX
  5
361
  8
SLD-0
 10
175.2893663040283
 20
205.8218869579872
 30
0.0
  0
SEQEND
  5
CD6
  8
SLD-0
  0
POLYLINE
  5
AA
  8
SLD-0
 66
     1
 10
0.0
 20
0.0
 30
0.0
 70
     1
  0
VERTEX
  5
362
  8
SLD-0
 10
170.2354976390672
 20
196.9196878149615
 30
0.0
  0
VERTEX
  5
363
  8
SLD-0
 10
170.2623528065447
 20
196.3465014807302
 30
0.0
  0
VERTEX
  5
364
  8
SLD-0
 10
169.7863914773849
 20
195.9534178535486
 30
0.0
  0
VERTEX
  5
365
  8
SLD-0
 10
171.3311045950019
 20
195.5825171993846
 30
0.0
  0
VERTEX
  5
366
  8
SLD-0
 10
171.3336222669529
 20
195.5287809805504
 30
0.0
  0
VERTEX
  5
367
  8
SLD-0
 10
169.7405414066667
 20
195.9138893835838
 30
0.0
  0
VERTEX
  5
368
  8
SLD-0
 10
169.5093144251189
 20
195.7229252546923
 30
0.0
  0
VERTEX
  5
369
  8
SLD-0
 10
170.3325872680778
 20
194.7260736701952
 30
0.0
  0
VERTEX
  5
36A
  8
SLD-0
 10
170.2983526694863
 20
194.6978002383742
 30
0.0
  0
VERTEX
  5
36B
  8
SLD-0
 10
168.5949968663716
 20
196.7602913624524
 30
0.0
  0
VERTEX
  5
36C
  8
SLD-0
 10
169.3830859324097
 20
197.4111528708176
 30
0.0
  0
VERTEX
  5
36D
  8
SLD-0
 10
169.9408642601655
 20
197.2764416580112
 30
0.0
  0
SEQEND
  5
CD7
  8
SLD-0
  0
POLYLINE
  5
AB
  8
SLD-0
 66
     1
 10
0.0
 20
0.0
 30
0.0
 70
     1
  0
VERTEX
  5
36E
  8
SLD-0
 10
170.18725553283
 20
196.9084239232924
 30
0.0
  0
VERTEX
  5
36F
  8
SLD-0
 10
169.9211851646598
 20
197.2305925340593
 30
0.0
  0
VERTEX
  5
370
  8
SLD-0
 10
169.4069844780164
 20
197.3547536234618
 30
0.0
  0
VERTEX
  5
371
  8
SLD-0
 10
168.6666134697915
 20
196.7433011722997
 30
0.0
  0
VERTEX
  5
372
  8
SLD-0
 10
169.4716165160243
 20
195.7685713861475
 30
0.0
  0
VERTEX
  5
373
  8
SLD-0
 10
170.2119875242492
 20
196.3800238373097
 30
0.0
  0
SEQEND
  5
CD8
  8
SLD-0
  0
POLYLINE
  5
AC
  8
SLD-0
 66
     1
 10
0.0
 20
0.0
 30
0.0
 70
     1
  0
VERTEX
  5
374
  8
SLD-0
 10
172.3720260993987
 20
196.3760762038682
 30
0.0
  0
VERTEX
  5
375
  8
SLD-0
 10
171.8618301716474
 20
195.9547191448656
 30
0.0
  0
VERTEX
  5
376
  8
SLD-0
 10
171.8252905781953
 20
195.9989627415554
 30
0.0
  0
VERTEX
  5
377
  8
SLD-0
 10
172.0638091467335
 20
196.1959487955205
 30
0.0
  0
VERTEX
  5
378
  8
SLD-0
 10
170.4429570077966
 20
198.1585411933553
 30
0.0
  0
VERTEX
  5
379
  8
SLD-0
 10
170.467063757689
 20
197.6689261385239
 30
0.0
  0
VERTEX
  5
37A
  8
SLD-0
 10
170.4147457141064
 20
197.6815871905147
 30
0.0
  0
VERTEX
  5
37B
  8
SLD-0
 10
170.3894683781534
 20
198.2422969950748
 30
0.0
  0
VERTEX
  5
37C
  8
SLD-0
 10
170.41332740706
 20
198.2620015236763
 30
0.0
  0
VERTEX
  5
37D
  8
SLD-0
 10
172.0969918442509
 20
196.2233534906096
 30
0.0
  0
VERTEX
  5
37E
  8
SLD-0
 10
172.3354865059466
 20
196.420319800558
 30
0.0
  0
SEQEND
  5
CD9
  8
SLD-0
  0
POLYLINE
  5
AD
  8
SLD-0
 66
     1
 10
0.0
 20
0.0
 30
0.0
 70
     1
  0
VERTEX
  5
37F
  8
SLD-0
 10
172.8831604905099
 20
196.8325233169253
 30
0.0
  0
VERTEX
  5
380
  8
SLD-0
 10
172.8489258919184
 20
196.8042498851044
 30
0.0
  0
VERTEX
  5
381
  8
SLD-0
 10
172.5675604921952
 20
197.1449383299323
 30
0.0
  0
VERTEX
  5
382
  8
SLD-0
 10
172.6017950907866
 20
197.1732117617533
 30
0.0
  0
SEQEND
  5
CDA
  8
SLD-0
  0
POLYLINE
  5
AE
  8
SLD-0
 66
     1
 10
0.0
 20
0.0
 30
0.0
 70
     1
  0
VERTEX
  5
383
  8
SLD-0
 10
174.137616312255
 20
198.4273429213576
 30
0.0
  0
VERTEX
  5
384
  8
SLD-0
 10
174.1633658148009
 20
197.8554953703114
 30
0.0
  0
VERTEX
  5
385
  8
SLD-0
 10
173.640738328902
 20
197.4238714226587
 30
0.0
  0
VERTEX
  5
386
  8
SLD-0
 10
173.0950173984111
 20
197.5524553573229
 30
0.0
  0
VERTEX
  5
387
  8
SLD-0
 10
173.0924997264601
 20
197.606191576157
 30
0.0
  0
VERTEX
  5
388
  8
SLD-0
 10
173.6166542004402
 20
197.4784016520153
 30
0.0
  0
VERTEX
  5
389
  8
SLD-0
 10
174.1133427621271
 20
197.8886033416192
 30
0.0
  0
VERTEX
  5
38A
  8
SLD-0
 10
174.0896374595729
 20
198.4157602717872
 30
0.0
  0
VERTEX
  5
38B
  8
SLD-0
 10
173.5413592803031
 20
199.079637352666
 30
0.0
  0
VERTEX
  5
38C
  8
SLD-0
 10
173.0282116078802
 20
199.2025234104636
 30
0.0
  0
VERTEX
  5
38D
  8
SLD-0
 10
172.2536060010639
 20
198.5627975274805
 30
0.0
  0
VERTEX
  5
38E
  8
SLD-0
 10
171.6550727181198
 20
199.2875254917028
 30
0.0
  0
VERTEX
  5
38F
  8
SLD-0
 10
172.6910040213069
 20
200.1430732205206
 30
0.0
  0
VERTEX
  5
390
  8
SLD-0
 10
172.7275699401144
 20
200.0987977480406
 30
0.0
  0
VERTEX
  5
391
  8
SLD-0
 10
171.7258732355188
 20
199.2715234510438
 30
0.0
  0
VERTEX
  5
392
  8
SLD-0
 10
172.2503532934047
 20
198.6364620844357
 30
0.0
  0
VERTEX
  5
393
  8
SLD-0
 10
173.0042077608514
 20
199.2590501609799
 30
0.0
  0
VERTEX
  5
394
  8
SLD-0
 10
173.5620387393182
 20
199.1242751965932
 30
0.0
  0
SEQEND
  5
CDB
  8
SLD-0
  0
POLYLINE
  5
AF
  8
SLD-0
 66
     1
 10
0.0
 20
0.0
 30
0.0
 70
     1
  0
VERTEX
  5
395
  8
SLD-0
 10
175.667601587418
 20
199.691023737563
 30
0.0
  0
VERTEX
  5
396
  8
SLD-0
 10
175.693403740675
 20
199.1191124349366
 30
0.0
  0
VERTEX
  5
397
  8
SLD-0
 10
175.170776254776
 20
198.6874884872839
 30
0.0
  0
VERTEX
  5
398
  8
SLD-0
 10
174.6140509412408
 20
198.8209246684854
 30
0.0
  0
VERTEX
  5
399
  8
SLD-0
 10
173.7573712221359
 20
199.8582266306478
 30
0.0
  0
VERTEX
  5
39A
  8
SLD-0
 10
173.7056821414299
 20
200.9810685185501
 30
0.0
  0
VERTEX
  5
39B
  8
SLD-0
 10
173.9659559367266
 20
201.1960216276528
 30
0.0
  0
VERTEX
  5
39C
  8
SLD-0
 10
174.0024955301787
 20
201.1517780309629
 30
0.0
  0
VERTEX
  5
39D
  8
SLD-0
 10
173.7546532930297
 20
200.9470918105103
 30
0.0
  0
VERTEX
  5
39E
  8
SLD-0
 10
173.8064533212367
 20
199.8685221168397
 30
0.0
  0
VERTEX
  5
39F
  8
SLD-0
 10
174.0611774611807
 20
199.5600919716156
 30
0.0
  0
VERTEX
  5
3A0
  8
SLD-0
 10
174.8150319286274
 20
200.1826800481598
 30
0.0
  0
VERTEX
  5
3A1
  8
SLD-0
 10
175.3728892324498
 20
200.047873207983
 30
0.0
  0
SEQEND
  5
CDC
  8
SLD-0
  0
POLYLINE
  5
B0
  8
SLD-0
 66
     1
 10
0.0
 20
0.0
 30
0.0
 70
     1
  0
VERTEX
  5
3A2
  8
SLD-0
 10
175.6200439404241
 20
199.6789310753507
 30
0.0
  0
VERTEX
  5
3A3
  8
SLD-0
 10
175.3528679073224
 20
200.0024384693027
 30
0.0
  0
VERTEX
  5
3A4
  8
SLD-0
 10
174.8397992109661
 20
200.12522889973
 30
0.0
  0
VERTEX
  5
3A5
  8
SLD-0
 10
174.0994282027412
 20
199.5137764485678
 30
0.0
  0
VERTEX
  5
3A6
  8
SLD-0
 10
174.6349385845871
 20
198.8653591258984
 30
0.0
  0
VERTEX
  5
3A7
  8
SLD-0
 10
175.1469817052249
 20
198.7416680829491
 30
0.0
  0
VERTEX
  5
3A8
  8
SLD-0
 10
175.6436702669118
 20
199.1518697725531
 30
0.0
  0
SEQEND
  5
CDD
  8
SLD-0
  0
POLYLINE
  5
B1
  8
SLD-0
 66
     1
 10
0.0
 20
0.0
 30
0.0
 70
     1
  0
VERTEX
  5
3A9
  8
SLD-0
 10
177.4720550191599
 20
200.6223675659525
 30
0.0
  0
VERTEX
  5
3AA
  8
SLD-0
 10
177.4378443274111
 20
200.5941138781482
 30
0.0
  0
VERTEX
  5
3AB
  8
SLD-0
 10
176.601987964517
 20
201.6062020903238
 30
0.0
  0
VERTEX
  5
3AC
  8
SLD-0
 10
176.102029871866
 20
201.7258261278708
 30
0.0
  0
VERTEX
  5
3AD
  8
SLD-0
 10
176.1260266353572
 20
201.2131184631421
 30
0.0
  0
VERTEX
  5
3AE
  8
SLD-0
 10
176.4000735862478
 20
200.8812914879682
 30
0.0
  0
VERTEX
  5
3AF
  8
SLD-0
 10
176.3658389876564
 20
200.8530180561472
 30
0.0
  0
VERTEX
  5
3B0
  8
SLD-0
 10
176.0917920367658
 20
201.1848450313212
 30
0.0
  0
VERTEX
  5
3B1
  8
SLD-0
 10
175.5928858451888
 20
201.3053378056001
 30
0.0
  0
VERTEX
  5
3B2
  8
SLD-0
 10
175.61688260868
 20
200.7926301408715
 30
0.0
  0
VERTEX
  5
3B3
  8
SLD-0
 10
176.4527389715741
 20
199.7805419286959
 30
0.0
  0
VERTEX
  5
3B4
  8
SLD-0
 10
176.4185043729826
 20
199.7522684968749
 30
0.0
  0
VERTEX
  5
3B5
  8
SLD-0
 10
175.2957279603521
 20
201.1117709455943
 30
0.0
  0
VERTEX
  5
3B6
  8
SLD-0
 10
175.3299625589435
 20
201.1400443774153
 30
0.0
  0
VERTEX
  5
3B7
  8
SLD-0
 10
175.565258586519
 20
200.8551385653015
 30
0.0
  0
VERTEX
  5
3B8
  8
SLD-0
 10
175.5411565216057
 20
201.3679737331906
 30
0.0
  0
VERTEX
  5
3B9
  8
SLD-0
 10
176.0772130514506
 20
201.2384320827074
 30
0.0
  0
VERTEX
  5
3BA
  8
SLD-0
 10
176.0503005482829
 20
201.7884620554612
 30
0.0
  0
VERTEX
  5
3BB
  8
SLD-0
 10
176.6222725431994
 20
201.6513180711028
 30
0.0
  0
SEQEND
  5
CDE
  8
SLD-0
  0
POLYLINE
  5
B2
  8
SLD-0
 66
     1
 10
0.0
 20
0.0
 30
0.0
 70
     1
  0
VERTEX
  5
3BC
  8
SLD-0
 10
179.002092945034
 20
201.8859846305777
 30
0.0
  0
VERTEX
  5
3BD
  8
SLD-0
 10
178.9678822532851
 20
201.8577309427733
 30
0.0
  0
VERTEX
  5
3BE
  8
SLD-0
 10
178.1320258903911
 20
202.8698191549489
 30
0.0
  0
VERTEX
  5
3BF
  8
SLD-0
 10
177.6320677977401
 20
202.9894431924959
 30
0.0
  0
VERTEX
  5
3C0
  8
SLD-0
 10
177.6560645612313
 20
202.4767355277673
 30
0.0
  0
VERTEX
  5
3C1
  8
SLD-0
 10
177.9301115121219
 20
202.1449085525934
 30
0.0
  0
VERTEX
  5
3C2
  8
SLD-0
 10
177.8958769135304
 20
202.1166351207724
 30
0.0
  0
VERTEX
  5
3C3
  8
SLD-0
 10
177.6218299626399
 20
202.4484620959464
 30
0.0
  0
VERTEX
  5
3C4
  8
SLD-0
 10
177.1229237710629
 20
202.5689548702253
 30
0.0
  0
VERTEX
  5
3C5
  8
SLD-0
 10
177.1469205345541
 20
202.0562472054967
 30
0.0
  0
VERTEX
  5
3C6
  8
SLD-0
 10
177.9827768974481
 20
201.0441589933211
 30
0.0
  0
VERTEX
  5
3C7
  8
SLD-0
 10
177.9485422988567
 20
201.0158855615001
 30
0.0
  0
VERTEX
  5
3C8
  8
SLD-0
 10
176.8257658862262
 20
202.3753880102195
 30
0.0
  0
VERTEX
  5
3C9
  8
SLD-0
 10
176.8600004848176
 20
202.4036614420405
 30
0.0
  0
VERTEX
  5
3CA
  8
SLD-0
 10
177.095296512393
 20
202.1187556299267
 30
0.0
  0
VERTEX
  5
3CB
  8
SLD-0
 10
177.0711944474798
 20
202.6315907978157
 30
0.0
  0
VERTEX
  5
3CC
  8
SLD-0
 10
177.6072509773246
 20
202.5020491473326
 30
0.0
  0
VERTEX
  5
3CD
  8
SLD-0
 10
177.580338474157
 20
203.0520791200864
 30
0.0
  0
VERTEX
  5
3CE
  8
SLD-0
 10
178.1523104690735
 20
202.914935135728
 30
0.0
  0
SEQEND
  5
CDF
  8
SLD-0
  0
POLYLINE
  5
B3
  8
SLD-0
 66
     1
 10
0.0
 20
0.0
 30
0.0
 70
     1
  0
VERTEX
  5
3CF
  8
SLD-0
 10
144.9835720036865
 20
146.5354341220424
 30
0.0
  0
VERTEX
  5
3D0
  8
SLD-0
 10
144.1082575505615
 20
146.5354341220424
 30
0.0
  0
VERTEX
  5
3D1
  8
SLD-0
 10
144.1082575505615
 20
146.6113403720424
 30
0.0
  0
VERTEX
  5
3D2
  8
SLD-0
 10
144.5174704411865
 20
146.6113403720424
 30
0.0
  0
VERTEX
  5
3D3
  8
SLD-0
 10
144.5174704411865
 20
149.9784497470424
 30
0.0
  0
VERTEX
  5
3D4
  8
SLD-0
 10
144.1296266911865
 20
149.4587544345424
 30
0.0
  0
VERTEX
  5
3D5
  8
SLD-0
 10
144.0869294255615
 20
149.5157388095424
 30
0.0
  0
VERTEX
  5
3D6
  8
SLD-0
 10
144.5334665349365
 20
150.1089341220424
 30
0.0
  0
VERTEX
  5
3D7
  8
SLD-0
 10
144.5744001286865
 20
150.1089341220424
 30
0.0
  0
VERTEX
  5
3D8
  8
SLD-0
 10
144.5744001286865
 20
146.6113403720424
 30
0.0
  0
VERTEX
  5
3D9
  8
SLD-0
 10
144.9835720036865
 20
146.6113403720424
 30
0.0
  0
SEQEND
  5
CE0
  8
SLD-0
  0
POLYLINE
  5
B4
  8
SLD-0
 66
     1
 10
0.0
 20
0.0
 30
0.0
 70
     1
  0
VERTEX
  5
3DA
  8
SLD-0
 10
147.6381852849365
 20
147.1404966220424
 30
0.0
  0
VERTEX
  5
3DB
  8
SLD-0
 10
147.1827477849365
 20
146.5354341220424
 30
0.0
  0
VERTEX
  5
3DC
  8
SLD-0
 10
146.2861052068115
 20
146.5354341220424
 30
0.0
  0
VERTEX
  5
3DD
  8
SLD-0
 10
145.8306677068115
 20
147.1404966220424
 30
0.0
  0
VERTEX
  5
3DE
  8
SLD-0
 10
145.8306677068115
 20
148.9201372470424
 30
0.0
  0
VERTEX
  5
3DF
  8
SLD-0
 10
146.7237829411865
 20
150.1089341220424
 30
0.0
  0
VERTEX
  5
3E0
  8
SLD-0
 10
147.1703200505615
 20
150.1089341220424
 30
0.0
  0
VERTEX
  5
3E1
  8
SLD-0
 10
147.1703200505615
 20
150.0330278720424
 30
0.0
  0
VERTEX
  5
3E2
  8
SLD-0
 10
146.7451110661865
 20
150.0330278720424
 30
0.0
  0
VERTEX
  5
3E3
  8
SLD-0
 10
145.8894020818115
 20
148.8892934970424
 30
0.0
  0
VERTEX
  5
3E4
  8
SLD-0
 10
145.8894020818115
 20
148.3601372470424
 30
0.0
  0
VERTEX
  5
3E5
  8
SLD-0
 10
147.1827477849365
 20
148.3601372470424
 30
0.0
  0
VERTEX
  5
3E6
  8
SLD-0
 10
147.6381852849365
 20
147.7527231845424
 30
0.0
  0
SEQEND
  5
CE1
  8
SLD-0
  0
POLYLINE
  5
B5
  8
SLD-0
 66
     1
 10
0.0
 20
0.0
 30
0.0
 70
     1
  0
VERTEX
  5
3E7
  8
SLD-0
 10
147.5794919255615
 20
147.1682231845424
 30
0.0
  0
VERTEX
  5
3E8
  8
SLD-0
 10
147.5794919255615
 20
147.7232466220424
 30
0.0
  0
VERTEX
  5
3E9
  8
SLD-0
 10
147.1596149724365
 20
148.2806763095424
 30
0.0
  0
VERTEX
  5
3EA
  8
SLD-0
 10
145.8894020818115
 20
148.2806763095424
 30
0.0
  0
VERTEX
  5
3EB
  8
SLD-0
 10
145.8894020818115
 20
147.1682231845424
 30
0.0
  0
VERTEX
  5
3EC
  8
SLD-0
 10
146.3074743474365
 20
146.6107388095424
 30
0.0
  0
VERTEX
  5
3ED
  8
SLD-0
 10
147.1596149724365
 20
146.6107388095424
 30
0.0
  0
SEQEND
  5
CE2
  8
SLD-0
  0
POLYLINE
  5
B6
  8
SLD-0
 66
     1
 10
0.0
 20
0.0
 30
0.0
 70
     1
  0
VERTEX
  5
3EE
  8
SLD-0
 10
152.8792848943115
 20
147.1263325595424
 30
0.0
  0
VERTEX
  5
3EF
  8
SLD-0
 10
152.4203200505615
 20
146.5214341220424
 30
0.0
  0
VERTEX
  5
3F0
  8
SLD-0
 10
151.9541774724365
 20
147.1405513095424
 30
0.0
  0
VERTEX
  5
3F1
  8
SLD-0
 10
151.9541774724365
 20
148.8651763095424
 30
0.0
  0
VERTEX
  5
3F2
  8
SLD-0
 10
151.1091325505615
 20
148.8651763095424
 30
0.0
  0
VERTEX
  5
3F3
  8
SLD-0
 10
151.1091325505615
 20
148.9434341220424
 30
0.0
  0
VERTEX
  5
3F4
  8
SLD-0
 10
151.9541774724365
 20
148.9434341220424
 30
0.0
  0
VERTEX
  5
3F5
  8
SLD-0
 10
151.9541774724365
 20
150.0704341220424
 30
0.0
  0
VERTEX
  5
3F6
  8
SLD-0
 10
152.0129118474365
 20
150.0704341220424
 30
0.0
  0
VERTEX
  5
3F7
  8
SLD-0
 10
152.0129118474365
 20
148.9434341220424
 30
0.0
  0
VERTEX
  5
3F8
  8
SLD-0
 10
152.8579567693115
 20
148.9434341220424
 30
0.0
  0
VERTEX
  5
3F9
  8
SLD-0
 10
152.8579567693115
 20
148.8651763095424
 30
0.0
  0
VERTEX
  5
3FA
  8
SLD-0
 10
152.0129118474365
 20
148.8651763095424
 30
0.0
  0
VERTEX
  5
3FB
  8
SLD-0
 10
152.0129118474365
 20
147.1690434970424
 30
0.0
  0
VERTEX
  5
3FC
  8
SLD-0
 10
152.4203200505615
 20
146.6258325595424
 30
0.0
  0
VERTEX
  5
3FD
  8
SLD-0
 10
152.8365876286865
 20
147.1832622470424
 30
0.0
  0
SEQEND
  5
CE3
  8
SLD-0
  0
POLYLINE
  5
B7
  8
SLD-0
 66
     1
 10
0.0
 20
0.0
 30
0.0
 70
     1
  0
VERTEX
  5
3FE
  8
SLD-0
 10
155.5238903630615
 20
148.3218559970424
 30
0.0
  0
VERTEX
  5
3FF
  8
SLD-0
 10
155.0577477849365
 20
147.7002778720424
 30
0.0
  0
VERTEX
  5
400
  8
SLD-0
 10
153.7644020818115
 20
147.7002778720424
 30
0.0
  0
VERTEX
  5
401
  8
SLD-0
 10
153.7644020818115
 20
147.1688794345424
 30
0.0
  0
VERTEX
  5
402
  8
SLD-0
 10
154.1824743474365
 20
146.6113403720424
 30
0.0
  0
VERTEX
  5
403
  8
SLD-0
 10
155.0453200505615
 20
146.6113403720424
 30
0.0
  0
VERTEX
  5
404
  8
SLD-0
 10
155.0453200505615
 20
146.5354341220424
 30
0.0
  0
VERTEX
  5
405
  8
SLD-0
 10
154.1611052068115
 20
146.5354341220424
 30
0.0
  0
VERTEX
  5
406
  8
SLD-0
 10
153.7056677068115
 20
147.1403872470424
 30
0.0
  0
VERTEX
  5
407
  8
SLD-0
 10
153.7056677068115
 20
148.3360747470424
 30
0.0
  0
VERTEX
  5
408
  8
SLD-0
 10
154.1611052068115
 20
148.9434341220424
 30
0.0
  0
VERTEX
  5
409
  8
SLD-0
 10
155.0577477849365
 20
148.9434341220424
 30
0.0
  0
SEQEND
  5
CE4
  8
SLD-0
  0
POLYLINE
  5
B8
  8
SLD-0
 66
     1
 10
0.0
 20
0.0
 30
0.0
 70
     1
  0
VERTEX
  5
40A
  8
SLD-0
 10
155.4438278630615
 20
148.3210356845424
 30
0.0
  0
VERTEX
  5
40B
  8
SLD-0
 10
155.0346149724365
 20
148.8642466220424
 30
0.0
  0
VERTEX
  5
40C
  8
SLD-0
 10
154.1824743474365
 20
148.8642466220424
 30
0.0
  0
VERTEX
  5
40D
  8
SLD-0
 10
153.7644020818115
 20
148.3068169345424
 30
0.0
  0
VERTEX
  5
40E
  8
SLD-0
 10
153.7644020818115
 20
147.7754731845424
 30
0.0
  0
VERTEX
  5
40F
  8
SLD-0
 10
155.0346149724365
 20
147.7754731845424
 30
0.0
  0
SEQEND
  5
CE5
  8
SLD-0
  0
POLYLINE
  5
B9
  8
SLD-0
 66
     1
 10
0.0
 20
0.0
 30
0.0
 70
     1
  0
VERTEX
  5
410
  8
SLD-0
 10
158.1488903630615
 20
148.3218559970424
 30
0.0
  0
VERTEX
  5
411
  8
SLD-0
 10
157.6827477849365
 20
147.7002778720424
 30
0.0
  0
VERTEX
  5
412
  8
SLD-0
 10
156.3894020818115
 20
147.7002778720424
 30
0.0
  0
VERTEX
  5
413
  8
SLD-0
 10
156.3894020818115
 20
147.1688794345424
 30
0.0
  0
VERTEX
  5
414
  8
SLD-0
 10
156.8074743474365
 20
146.6113403720424
 30
0.0
  0
VERTEX
  5
415
  8
SLD-0
 10
157.6703200505615
 20
146.6113403720424
 30
0.0
  0
VERTEX
  5
416
  8
SLD-0
 10
157.6703200505615
 20
146.5354341220424
 30
0.0
  0
VERTEX
  5
417
  8
SLD-0
 10
156.7861052068115
 20
146.5354341220424
 30
0.0
  0
VERTEX
  5
418
  8
SLD-0
 10
156.3306677068115
 20
147.1403872470424
 30
0.0
  0
VERTEX
  5
419
  8
SLD-0
 10
156.3306677068115
 20
148.3360747470424
 30
0.0
  0
VERTEX
  5
41A
  8
SLD-0
 10
156.7861052068115
 20
148.9434341220424
 30
0.0
  0
VERTEX
  5
41B
  8
SLD-0
 10
157.6827477849365
 20
148.9434341220424
 30
0.0
  0
SEQEND
  5
CE6
  8
SLD-0
  0
POLYLINE
  5
BA
  8
SLD-0
 66
     1
 10
0.0
 20
0.0
 30
0.0
 70
     1
  0
VERTEX
  5
41C
  8
SLD-0
 10
158.0688278630615
 20
148.3210356845424
 30
0.0
  0
VERTEX
  5
41D
  8
SLD-0
 10
157.6596149724365
 20
148.8642466220424
 30
0.0
  0
VERTEX
  5
41E
  8
SLD-0
 10
156.8074743474365
 20
148.8642466220424
 30
0.0
  0
VERTEX
  5
41F
  8
SLD-0
 10
156.3894020818115
 20
148.3068169345424
 30
0.0
  0
VERTEX
  5
420
  8
SLD-0
 10
156.3894020818115
 20
147.7754731845424
 30
0.0
  0
VERTEX
  5
421
  8
SLD-0
 10
157.6596149724365
 20
147.7754731845424
 30
0.0
  0
SEQEND
  5
CE7
  8
SLD-0
  0
POLYLINE
  5
BB
  8
SLD-0
 66
     1
 10
0.0
 20
0.0
 30
0.0
 70
     1
  0
VERTEX
  5
422
  8
SLD-0
 10
160.7542848943115
 20
147.1263325595424
 30
0.0
  0
VERTEX
  5
423
  8
SLD-0
 10
160.2953200505615
 20
146.5214341220424
 30
0.0
  0
VERTEX
  5
424
  8
SLD-0
 10
159.8291774724365
 20
147.1405513095424
 30
0.0
  0
VERTEX
  5
425
  8
SLD-0
 10
159.8291774724365
 20
148.8651763095424
 30
0.0
  0
VERTEX
  5
426
  8
SLD-0
 10
158.9841325505615
 20
148.8651763095424
 30
0.0
  0
VERTEX
  5
427
  8
SLD-0
 10
158.9841325505615
 20
148.9434341220424
 30
0.0
  0
VERTEX
  5
428
  8
SLD-0
 10
159.8291774724365
 20
148.9434341220424
 30
0.0
  0
VERTEX
  5
429
  8
SLD-0
 10
159.8291774724365
 20
150.0704341220424
 30
0.0
  0
VERTEX
  5
42A
  8
SLD-0
 10
159.8879118474365
 20
150.0704341220424
 30
0.0
  0
VERTEX
  5
42B
  8
SLD-0
 10
159.8879118474365
 20
148.9434341220424
 30
0.0
  0
VERTEX
  5
42C
  8
SLD-0
 10
160.7329567693115
 20
148.9434341220424
 30
0.0
  0
VERTEX
  5
42D
  8
SLD-0
 10
160.7329567693115
 20
148.8651763095424
 30
0.0
  0
VERTEX
  5
42E
  8
SLD-0
 10
159.8879118474365
 20
148.8651763095424
 30
0.0
  0
VERTEX
  5
42F
  8
SLD-0
 10
159.8879118474365
 20
147.1690434970424
 30
0.0
  0
VERTEX
  5
430
  8
SLD-0
 10
160.2953200505615
 20
146.6258325595424
 30
0.0
  0
VERTEX
  5
431
  8
SLD-0
 10
160.7115876286865
 20
147.1832622470424
 30
0.0
  0
SEQEND
  5
CE8
  8
SLD-0
  0
POLYLINE
  5
BC
  8
SLD-0
 66
     1
 10
0.0
 20
0.0
 30
0.0
 70
     1
  0
VERTEX
  5
432
  8
SLD-0
 10
163.3881852849365
 20
146.5704341220424
 30
0.0
  0
VERTEX
  5
433
  8
SLD-0
 10
163.3294919255615
 20
146.5704341220424
 30
0.0
  0
VERTEX
  5
434
  8
SLD-0
 10
163.3294919255615
 20
148.3068169345424
 30
0.0
  0
VERTEX
  5
435
  8
SLD-0
 10
162.9096149724365
 20
148.8642466220424
 30
0.0
  0
VERTEX
  5
436
  8
SLD-0
 10
162.4951110661865
 20
148.8642466220424
 30
0.0
  0
VERTEX
  5
437
  8
SLD-0
 10
161.6394020818115
 20
147.7232466220424
 30
0.0
  0
VERTEX
  5
438
  8
SLD-0
 10
161.6394020818115
 20
146.5704341220424
 30
0.0
  0
VERTEX
  5
439
  8
SLD-0
 10
161.5806677068115
 20
146.5704341220424
 30
0.0
  0
VERTEX
  5
43A
  8
SLD-0
 10
161.5806677068115
 20
150.0704341220424
 30
0.0
  0
VERTEX
  5
43B
  8
SLD-0
 10
161.6394020818115
 20
150.0704341220424
 30
0.0
  0
VERTEX
  5
43C
  8
SLD-0
 10
161.6394020818115
 20
147.8309263095424
 30
0.0
  0
VERTEX
  5
43D
  8
SLD-0
 10
162.4737829411865
 20
148.9434341220424
 30
0.0
  0
VERTEX
  5
43E
  8
SLD-0
 10
162.9327477849365
 20
148.9434341220424
 30
0.0
  0
VERTEX
  5
43F
  8
SLD-0
 10
163.3881852849365
 20
148.3359653720424
 30
0.0
  0
SEQEND
  5
CE9
  8
SLD-0
  0
POLYLINE
  5
BD
  8
SLD-0
 66
     1
 10
0.0
 20
0.0
 30
0.0
 70
     1
  0
VERTEX
  5
440
  8
SLD-0
 10
303.1307677175312
 20
167.3862139223459
 30
0.0
  0
VERTEX
  5
441
  8
SLD-0
 10
302.5675548950327
 20
167.2835513402729
 30
0.0
  0
VERTEX
  5
442
  8
SLD-0
 10
302.0694184028766
 20
167.7432237849406
 30
0.0
  0
VERTEX
  5
443
  8
SLD-0
 10
302.0964994153771
 20
168.0501845371617
 30
0.0
  0
VERTEX
  5
444
  8
SLD-0
 10
301.8557932815015
 20
167.9598735472114
 30
0.0
  0
VERTEX
  5
445
  8
SLD-0
 10
301.8475646733635
 20
168.006506561301
 30
0.0
  0
VERTEX
  5
446
  8
SLD-0
 10
302.1051801980389
 20
168.1032088714038
 30
0.0
  0
VERTEX
  5
447
  8
SLD-0
 10
302.126587804772
 20
168.3128551996918
 30
0.0
  0
VERTEX
  5
448
  8
SLD-0
 10
303.3369611503763
 20
169.6245090514134
 30
0.0
  0
VERTEX
  5
449
  8
SLD-0
 10
303.9014075600888
 20
169.7285084436753
 30
0.0
  0
VERTEX
  5
44A
  8
SLD-0
 10
304.3995440522449
 20
169.2688359990076
 30
0.0
  0
VERTEX
  5
44B
  8
SLD-0
 10
304.3702776674991
 20
168.9614729820031
 30
0.0
  0
VERTEX
  5
44C
  8
SLD-0
 10
304.612212139053
 20
169.0530693730378
 30
0.0
  0
VERTEX
  5
44D
  8
SLD-0
 10
304.6214205682953
 20
169.0055321955924
 30
0.0
  0
VERTEX
  5
44E
  8
SLD-0
 10
304.3628252225157
 20
168.9097340488454
 30
0.0
  0
VERTEX
  5
44F
  8
SLD-0
 10
304.3411410631355
 20
168.6978677740675
 30
0.0
  0
SEQEND
  5
CEA
  8
SLD-0
  0
POLYLINE
  5
BE
  8
SLD-0
 66
     1
 10
0.0
 20
0.0
 30
0.0
 70
     1
  0
VERTEX
  5
450
  8
SLD-0
 10
303.1123744716742
 20
167.4317073369663
 30
0.0
  0
VERTEX
  5
451
  8
SLD-0
 10
304.2931697602134
 20
168.7113081262037
 30
0.0
  0
VERTEX
  5
452
  8
SLD-0
 10
304.3089465108637
 20
168.8870544806073
 30
0.0
  0
VERTEX
  5
453
  8
SLD-0
 10
302.1501804330654
 20
168.0706838959547
 30
0.0
  0
VERTEX
  5
454
  8
SLD-0
 10
302.119895861402
 20
167.7741047719003
 30
0.0
  0
VERTEX
  5
455
  8
SLD-0
 10
302.5933089605756
 20
167.337246681675
 30
0.0
  0
SEQEND
  5
CEB
  8
SLD-0
  0
POLYLINE
  5
BF
  8
SLD-0
 66
     1
 10
0.0
 20
0.0
 30
0.0
 70
     1
  0
VERTEX
  5
456
  8
SLD-0
 10
304.3153910986697
 20
168.939667195071
 30
0.0
  0
VERTEX
  5
457
  8
SLD-0
 10
304.3468812214742
 20
169.2375527472645
 30
0.0
  0
VERTEX
  5
458
  8
SLD-0
 10
303.8734681223005
 20
169.6744108374898
 30
0.0
  0
VERTEX
  5
459
  8
SLD-0
 10
303.3542277037757
 20
169.5777489456985
 30
0.0
  0
VERTEX
  5
45A
  8
SLD-0
 10
302.1734324152364
 20
168.2981481564611
 30
0.0
  0
VERTEX
  5
45B
  8
SLD-0
 10
302.1566250208714
 20
168.1232966104184
 30
0.0
  0
SEQEND
  5
CEC
  8
SLD-0
  0
POLYLINE
  5
C0
  8
SLD-0
 66
     1
 10
0.0
 20
0.0
 30
0.0
 70
     1
  0
VERTEX
  5
45C
  8
SLD-0
 10
305.9109701360662
 20
164.8206872795029
 30
0.0
  0
VERTEX
  5
45D
  8
SLD-0
 10
305.3477573135677
 20
164.7180246974299
 30
0.0
  0
VERTEX
  5
45E
  8
SLD-0
 10
304.8496208214116
 20
165.1776971420976
 30
0.0
  0
VERTEX
  5
45F
  8
SLD-0
 10
304.906790223307
 20
165.7473285568488
 30
0.0
  0
VERTEX
  5
460
  8
SLD-0
 10
305.819140112417
 20
166.7360212197489
 30
0.0
  0
VERTEX
  5
461
  8
SLD-0
 10
306.9247651182697
 20
166.9386020992153
 30
0.0
  0
VERTEX
  5
462
  8
SLD-0
 10
307.1728421499747
 20
166.7096805537647
 30
0.0
  0
VERTEX
  5
463
  8
SLD-0
 10
307.1339280805848
 20
166.6675102687144
 30
0.0
  0
VERTEX
  5
464
  8
SLD-0
 10
306.8977000482815
 20
166.8854977456766
 30
0.0
  0
VERTEX
  5
465
  8
SLD-0
 10
305.8359580886475
 20
166.6887750012381
 30
0.0
  0
VERTEX
  5
466
  8
SLD-0
 10
305.5646810458405
 20
166.3947982878762
 30
0.0
  0
VERTEX
  5
467
  8
SLD-0
 10
306.2832089268688
 20
165.7317521693224
 30
0.0
  0
VERTEX
  5
468
  8
SLD-0
 10
306.2248339738323
 20
165.160814326432
 30
0.0
  0
SEQEND
  5
CED
  8
SLD-0
  0
POLYLINE
  5
C1
  8
SLD-0
 66
     1
 10
0.0
 20
0.0
 30
0.0
 70
     1
  0
VERTEX
  5
469
  8
SLD-0
 10
305.8925768902092
 20
164.8661806941233
 30
0.0
  0
VERTEX
  5
46A
  8
SLD-0
 10
306.1771149955676
 20
165.174528117016
 30
0.0
  0
VERTEX
  5
46B
  8
SLD-0
 10
306.2296209056874
 20
165.6994663099376
 30
0.0
  0
VERTEX
  5
46C
  8
SLD-0
 10
305.5239446317025
 20
166.3506531695923
 30
0.0
  0
VERTEX
  5
46D
  8
SLD-0
 10
304.9536348337714
 20
165.7326215136181
 30
0.0
  0
VERTEX
  5
46E
  8
SLD-0
 10
304.900098279937
 20
165.2085781290573
 30
0.0
  0
VERTEX
  5
46F
  8
SLD-0
 10
305.3735113791106
 20
164.771720038832
 30
0.0
  0
SEQEND
  5
CEE
  8
SLD-0
  0
POLYLINE
  5
C2
  8
SLD-0
 66
     1
 10
0.0
 20
0.0
 30
0.0
 70
     1
  0
VERTEX
  5
470
  8
SLD-0
 10
306.1055109071948
 20
164.0547838215451
 30
0.0
  0
VERTEX
  5
471
  8
SLD-0
 10
306.0728805857655
 20
164.0848945639981
 30
0.0
  0
VERTEX
  5
472
  8
SLD-0
 10
306.3725301344966
 20
164.4096179117049
 30
0.0
  0
VERTEX
  5
473
  8
SLD-0
 10
306.4051604559259
 20
164.379507169252
 30
0.0
  0
SEQEND
  5
CEF
  8
SLD-0
  0
POLYLINE
  5
C3
  8
SLD-0
 66
     1
 10
0.0
 20
0.0
 30
0.0
 70
     1
  0
VERTEX
  5
474
  8
SLD-0
 10
307.611802854035
 20
163.2511858561973
 30
0.0
  0
VERTEX
  5
475
  8
SLD-0
 10
307.0485900315365
 20
163.1485232741244
 30
0.0
  0
VERTEX
  5
476
  8
SLD-0
 10
306.793585892489
 20
163.3838370442298
 30
0.0
  0
VERTEX
  5
477
  8
SLD-0
 10
306.8507552943844
 20
163.9534684589811
 30
0.0
  0
VERTEX
  5
478
  8
SLD-0
 10
308.0611286399887
 20
165.2651223107027
 30
0.0
  0
VERTEX
  5
479
  8
SLD-0
 10
308.6255750497012
 20
165.3691217029645
 30
0.0
  0
VERTEX
  5
47A
  8
SLD-0
 10
308.8805791887488
 20
165.1338079328591
 30
0.0
  0
VERTEX
  5
47B
  8
SLD-0
 10
308.8221761996393
 20
164.5628397079189
 30
0.0
  0
SEQEND
  5
CF0
  8
SLD-0
  0
POLYLINE
  5
C4
  8
SLD-0
 66
     1
 10
0.0
 20
0.0
 30
0.0
 70
     1
  0
VERTEX
  5
47C
  8
SLD-0
 10
307.593409608178
 20
163.2966792708177
 30
0.0
  0
VERTEX
  5
47D
  8
SLD-0
 10
308.7742048967173
 20
164.5762800600552
 30
0.0
  0
VERTEX
  5
47E
  8
SLD-0
 10
308.8289189656197
 20
165.1015994907054
 30
0.0
  0
VERTEX
  5
47F
  8
SLD-0
 10
308.5976356119129
 20
165.3150240967791
 30
0.0
  0
VERTEX
  5
480
  8
SLD-0
 10
308.0783951933881
 20
165.2183622049878
 30
0.0
  0
VERTEX
  5
481
  8
SLD-0
 10
306.8975999048488
 20
163.9387614157503
 30
0.0
  0
VERTEX
  5
482
  8
SLD-0
 10
306.8440633510144
 20
163.4147180311896
 30
0.0
  0
VERTEX
  5
483
  8
SLD-0
 10
307.0753467047211
 20
163.2012934251159
 30
0.0
  0
SEQEND
  5
CF1
  8
SLD-0
  0
POLYLINE
  5
C5
  8
SLD-0
 66
     1
 10
0.0
 20
0.0
 30
0.0
 70
     1
  0
VERTEX
  5
484
  8
SLD-0
 10
308.8280570695478
 20
162.128845779962
 30
0.0
  0
VERTEX
  5
485
  8
SLD-0
 10
308.2648442470493
 20
162.026183197889
 30
0.0
  0
VERTEX
  5
486
  8
SLD-0
 10
308.0098401080018
 20
162.2614969679945
 30
0.0
  0
VERTEX
  5
487
  8
SLD-0
 10
308.0670095098972
 20
162.8311283827457
 30
0.0
  0
VERTEX
  5
488
  8
SLD-0
 10
309.2773828555015
 20
164.1427822344673
 30
0.0
  0
VERTEX
  5
489
  8
SLD-0
 10
309.841829265214
 20
164.2467816267292
 30
0.0
  0
VERTEX
  5
48A
  8
SLD-0
 10
310.0968334042616
 20
164.0114678566237
 30
0.0
  0
VERTEX
  5
48B
  8
SLD-0
 10
310.0384304151521
 20
163.4404996316836
 30
0.0
  0
SEQEND
  5
CF2
  8
SLD-0
  0
POLYLINE
  5
C6
  8
SLD-0
 66
     1
 10
0.0
 20
0.0
 30
0.0
 70
     1
  0
VERTEX
  5
48C
  8
SLD-0
 10
308.8096638236908
 20
162.1743391945824
 30
0.0
  0
VERTEX
  5
48D
  8
SLD-0
 10
309.99045911223
 20
163.4539399838199
 30
0.0
  0
VERTEX
  5
48E
  8
SLD-0
 10
310.0451731811325
 20
163.9792594144701
 30
0.0
  0
VERTEX
  5
48F
  8
SLD-0
 10
309.8138898274257
 20
164.1926840205437
 30
0.0
  0
VERTEX
  5
490
  8
SLD-0
 10
309.2946494089009
 20
164.0960221287525
 30
0.0
  0
VERTEX
  5
491
  8
SLD-0
 10
308.1138541203616
 20
162.816421339515
 30
0.0
  0
VERTEX
  5
492
  8
SLD-0
 10
308.0603175665271
 20
162.2923779549542
 30
0.0
  0
VERTEX
  5
493
  8
SLD-0
 10
308.2916009202339
 20
162.0789533488806
 30
0.0
  0
SEQEND
  5
CF3
  8
SLD-0
  0
POLYLINE
  5
C7
  8
SLD-0
 66
     1
 10
0.0
 20
0.0
 30
0.0
 70
     1
  0
VERTEX
  5
494
  8
SLD-0
 10
309.9951956127226
 20
160.4654445425911
 30
0.0
  0
VERTEX
  5
495
  8
SLD-0
 10
309.9625880778305
 20
160.4955342579893
 30
0.0
  0
VERTEX
  5
496
  8
SLD-0
 10
310.8527614331599
 20
161.4601947195387
 30
0.0
  0
VERTEX
  5
497
  8
SLD-0
 10
310.9038972144525
 20
161.9717151361771
 30
0.0
  0
VERTEX
  5
498
  8
SLD-0
 10
310.3991042618349
 20
161.8788223532649
 30
0.0
  0
VERTEX
  5
499
  8
SLD-0
 10
310.107248741411
 20
161.562545215388
 30
0.0
  0
VERTEX
  5
49A
  8
SLD-0
 10
310.0746184199816
 20
161.592655957841
 30
0.0
  0
VERTEX
  5
49B
  8
SLD-0
 10
310.3664739404055
 20
161.9089330957179
 30
0.0
  0
VERTEX
  5
49C
  8
SLD-0
 10
310.4186123293397
 20
162.4195283219456
 30
0.0
  0
VERTEX
  5
49D
  8
SLD-0
 10
309.9138193767222
 20
162.3266355390335
 30
0.0
  0
VERTEX
  5
49E
  8
SLD-0
 10
309.0236460213927
 20
161.3619750774841
 30
0.0
  0
VERTEX
  5
49F
  8
SLD-0
 10
308.9910156999634
 20
161.392085819937
 30
0.0
  0
VERTEX
  5
4A0
  8
SLD-0
 10
310.1867542154369
 20
162.6878802416901
 30
0.0
  0
VERTEX
  5
4A1
  8
SLD-0
 10
310.2193845368663
 20
162.6577694992372
 30
0.0
  0
VERTEX
  5
4A2
  8
SLD-0
 10
309.9687981159682
 20
162.3862147385894
 30
0.0
  0
VERTEX
  5
4A3
  8
SLD-0
 10
310.473703212878
 20
162.4792290497005
 30
0.0
  0
VERTEX
  5
4A4
  8
SLD-0
 10
310.4176065583511
 20
161.9306027581777
 30
0.0
  0
VERTEX
  5
4A5
  8
SLD-0
 10
310.9589880979906
 20
162.0314158639319
 30
0.0
  0
VERTEX
  5
4A6
  8
SLD-0
 10
310.9002000506941
 20
161.4461771084572
 30
0.0
  0
SEQEND
  5
CF4
  8
SLD-0
  0
POLYLINE
  5
C8
  8
SLD-0
 66
     1
 10
0.0
 20
0.0
 30
0.0
 70
     1
  0
VERTEX
  5
4A7
  8
SLD-0
 10
311.4535340006276
 20
159.1197130363138
 30
0.0
  0
VERTEX
  5
4A8
  8
SLD-0
 10
311.4209264657355
 20
159.1498027517119
 30
0.0
  0
VERTEX
  5
4A9
  8
SLD-0
 10
312.3110998210649
 20
160.1144632132614
 30
0.0
  0
VERTEX
  5
4AA
  8
SLD-0
 10
312.3622356023575
 20
160.6259836298997
 30
0.0
  0
VERTEX
  5
4AB
  8
SLD-0
 10
311.8574426497399
 20
160.5330908469876
 30
0.0
  0
VERTEX
  5
4AC
  8
SLD-0
 10
311.565587129316
 20
160.2168137091107
 30
0.0
  0
VERTEX
  5
4AD
  8
SLD-0
 10
311.5329568078866
 20
160.2469244515636
 30
0.0
  0
VERTEX
  5
4AE
  8
SLD-0
 10
311.8248123283105
 20
160.5632015894405
 30
0.0
  0
VERTEX
  5
4AF
  8
SLD-0
 10
311.8769507172448
 20
161.0737968156683
 30
0.0
  0
VERTEX
  5
4B0
  8
SLD-0
 10
311.3721577646272
 20
160.9809040327561
 30
0.0
  0
VERTEX
  5
4B1
  8
SLD-0
 10
310.4819844092978
 20
160.0162435712067
 30
0.0
  0
VERTEX
  5
4B2
  8
SLD-0
 10
310.4493540878684
 20
160.0463543136597
 30
0.0
  0
VERTEX
  5
4B3
  8
SLD-0
 10
311.6450926033419
 20
161.3421487354128
 30
0.0
  0
VERTEX
  5
4B4
  8
SLD-0
 10
311.6777229247713
 20
161.3120379929598
 30
0.0
  0
VERTEX
  5
4B5
  8
SLD-0
 10
311.4271365038733
 20
161.040483232312
 30
0.0
  0
VERTEX
  5
4B6
  8
SLD-0
 10
311.932041600783
 20
161.1334975434231
 30
0.0
  0
VERTEX
  5
4B7
  8
SLD-0
 10
311.8759449462561
 20
160.5848712519003
 30
0.0
  0
VERTEX
  5
4B8
  8
SLD-0
 10
312.4173264858957
 20
160.6856843576546
 30
0.0
  0
VERTEX
  5
4B9
  8
SLD-0
 10
312.3585384385991
 20
160.1004456021799
 30
0.0
  0
SEQEND
  5
CF5
  8
SLD-0
  0
POLYLINE
  5
C9
  8
SLD-0
 66
     1
 10
0.0
 20
0.0
 30
0.0
 70
     1
  0
VERTEX
  5
4BA
  8
SLD-0
 10
308.4701026707818
 20
168.0995442949083
 30
0.0
  0
VERTEX
  5
4BB
  8
SLD-0
 10
307.9068898482834
 20
167.9968817128353
 30
0.0
  0
VERTEX
  5
4BC
  8
SLD-0
 10
307.6518857092358
 20
168.2321954829408
 30
0.0
  0
VERTEX
  5
4BD
  8
SLD-0
 10
307.7090551111312
 20
168.801826897692
 30
0.0
  0
VERTEX
  5
4BE
  8
SLD-0
 10
308.9194284567355
 20
170.1134807494136
 30
0.0
  0
VERTEX
  5
4BF
  8
SLD-0
 10
309.483874866448
 20
170.2174801416755
 30
0.0
  0
VERTEX
  5
4C0
  8
SLD-0
 10
309.7388790054956
 20
169.98216637157
 30
0.0
  0
VERTEX
  5
4C1
  8
SLD-0
 10
309.6804760163861
 20
169.4111981466299
 30
0.0
  0
SEQEND
  5
CF6
  8
SLD-0
  0
POLYLINE
  5
CA
  8
SLD-0
 66
     1
 10
0.0
 20
0.0
 30
0.0
 70
     1
  0
VERTEX
  5
4C2
  8
SLD-0
 10
308.4517094249248
 20
168.1450377095287
 30
0.0
  0
VERTEX
  5
4C3
  8
SLD-0
 10
309.6325047134641
 20
169.4246384987661
 30
0.0
  0
VERTEX
  5
4C4
  8
SLD-0
 10
309.6872187823665
 20
169.9499579294163
 30
0.0
  0
VERTEX
  5
4C5
  8
SLD-0
 10
309.4559354286597
 20
170.16338253549
 30
0.0
  0
VERTEX
  5
4C6
  8
SLD-0
 10
308.9366950101349
 20
170.0667206436987
 30
0.0
  0
VERTEX
  5
4C7
  8
SLD-0
 10
307.7558997215957
 20
168.7871198544613
 30
0.0
  0
VERTEX
  5
4C8
  8
SLD-0
 10
307.7023631677612
 20
168.2630764699005
 30
0.0
  0
VERTEX
  5
4C9
  8
SLD-0
 10
307.9336465214679
 20
168.0496518638268
 30
0.0
  0
SEQEND
  5
CF7
  8
SLD-0
  0
POLYLINE
  5
CB
  8
SLD-0
 66
     1
 10
0.0
 20
0.0
 30
0.0
 70
     1
  0
VERTEX
  5
4CA
  8
SLD-0
 10
308.6656916226268
 20
167.3326735924303
 30
0.0
  0
VERTEX
  5
4CB
  8
SLD-0
 10
308.6330613011974
 20
167.3627843348833
 30
0.0
  0
VERTEX
  5
4CC
  8
SLD-0
 10
308.9327108499285
 20
167.6875076825901
 30
0.0
  0
VERTEX
  5
4CD
  8
SLD-0
 10
308.9653411713579
 20
167.6573969401372
 30
0.0
  0
SEQEND
  5
CF8
  8
SLD-0
  0
POLYLINE
  5
CC
  8
SLD-0
 66
     1
 10
0.0
 20
0.0
 30
0.0
 70
     1
  0
VERTEX
  5
4CE
  8
SLD-0
 10
311.3116534664867
 20
167.2762741393626
 30
0.0
  0
VERTEX
  5
4CF
  8
SLD-0
 10
310.7472070567742
 20
167.1722747471007
 30
0.0
  0
VERTEX
  5
4D0
  8
SLD-0
 10
310.2609423505571
 20
167.6209920962251
 30
0.0
  0
VERTEX
  5
4D1
  8
SLD-0
 10
309.7428233749541
 20
167.5255454864237
 30
0.0
  0
VERTEX
  5
4D2
  8
SLD-0
 10
309.1722892884387
 20
166.9072707740515
 30
0.0
  0
VERTEX
  5
4D3
  8
SLD-0
 10
310.1270452017702
 20
166.0262371785355
 30
0.0
  0
VERTEX
  5
4D4
  8
SLD-0
 10
310.0881311323803
 20
165.9840668934852
 30
0.0
  0
VERTEX
  5
4D5
  8
SLD-0
 10
309.1007448976194
 20
166.8952112314542
 30
0.0
  0
VERTEX
  5
4D6
  8
SLD-0
 10
309.7247998475825
 20
167.5714852767954
 30
0.0
  0
VERTEX
  5
4D7
  8
SLD-0
 10
310.289218221222
 20
167.6754542870075
 30
0.0
  0
VERTEX
  5
4D8
  8
SLD-0
 10
310.7745031063347
 20
167.227641101239
 30
0.0
  0
VERTEX
  5
4D9
  8
SLD-0
 10
311.2948582767934
 20
167.3234993308187
 30
0.0
  0
VERTEX
  5
4DA
  8
SLD-0
 10
311.5783029753031
 20
167.6306618537712
 30
0.0
  0
VERTEX
  5
4DB
  8
SLD-0
 10
311.632126580856
 20
168.1570280030309
 30
0.0
  0
VERTEX
  5
4DC
  8
SLD-0
 10
311.1587134816824
 20
168.5938860932562
 30
0.0
  0
VERTEX
  5
4DD
  8
SLD-0
 10
310.6270988252035
 20
168.4937358291702
 30
0.0
  0
VERTEX
  5
4DE
  8
SLD-0
 10
310.6325916279782
 20
168.5472830890394
 30
0.0
  0
VERTEX
  5
4DF
  8
SLD-0
 10
311.1857557651332
 20
168.6470114738498
 30
0.0
  0
VERTEX
  5
4E0
  8
SLD-0
 10
311.6838922572893
 20
168.1873390291821
 30
0.0
  0
VERTEX
  5
4E1
  8
SLD-0
 10
311.6254892681798
 20
167.616370804242
 30
0.0
  0
SEQEND
  5
CF9
  8
SLD-0
  0
POLYLINE
  5
CD
  8
SLD-0
 66
     1
 10
0.0
 20
0.0
 30
0.0
 70
     1
  0
VERTEX
  5
4E2
  8
SLD-0
 10
312.1433294793924
 20
165.2851388442935
 30
0.0
  0
VERTEX
  5
4E3
  8
SLD-0
 10
311.9169908042821
 20
165.4940005794787
 30
0.0
  0
VERTEX
  5
4E4
  8
SLD-0
 10
311.3380739319254
 20
164.8666416342318
 30
0.0
  0
VERTEX
  5
4E5
  8
SLD-0
 10
311.3054663970333
 20
164.89673134963
 30
0.0
  0
VERTEX
  5
4E6
  8
SLD-0
 10
311.8843832693901
 20
165.5240902948769
 30
0.0
  0
VERTEX
  5
4E7
  8
SLD-0
 10
311.1391495666333
 20
166.2117801216394
 30
0.0
  0
VERTEX
  5
4E8
  8
SLD-0
 10
313.1915947932382
 20
166.875259707173
 30
0.0
  0
VERTEX
  5
4E9
  8
SLD-0
 10
311.955904873672
 20
165.536170864529
 30
0.0
  0
VERTEX
  5
4EA
  8
SLD-0
 10
312.1822435487823
 20
165.3273091293438
 30
0.0
  0
SEQEND
  5
CFA
  8
SLD-0
  0
POLYLINE
  5
CE
  8
SLD-0
 66
     1
 10
0.0
 20
0.0
 30
0.0
 70
     1
  0
VERTEX
  5
4EB
  8
SLD-0
 10
311.9232412666338
 20
165.5661998158276
 30
0.0
  0
VERTEX
  5
4EC
  8
SLD-0
 10
313.039581623237
 20
166.7759522726944
 30
0.0
  0
VERTEX
  5
4ED
  8
SLD-0
 10
311.2432454201985
 20
166.193689184739
 30
0.0
  0
SEQEND
  5
CFB
  8
SLD-0
  0
POLYLINE
  5
CF
  8
SLD-0
 66
     1
 10
0.0
 20
0.0
 30
0.0
 70
     1
  0
VERTEX
  5
4EE
  8
SLD-0
 10
312.0679950816092
 20
164.1930819882852
 30
0.0
  0
VERTEX
  5
4EF
  8
SLD-0
 10
312.0353647601798
 20
164.2231927307382
 30
0.0
  0
VERTEX
  5
4F0
  8
SLD-0
 10
313.2307668427768
 20
165.5186225678943
 30
0.0
  0
VERTEX
  5
4F1
  8
SLD-0
 10
313.2633971642062
 20
165.4885118254414
 30
0.0
  0
SEQEND
  5
CFC
  8
SLD-0
  0
POLYLINE
  5
D0
  8
SLD-0
 66
     1
 10
0.0
 20
0.0
 30
0.0
 70
     1
  0
VERTEX
  5
4F2
  8
SLD-0
 10
313.5631588572294
 20
165.8133567013472
 30
0.0
  0
VERTEX
  5
4F3
  8
SLD-0
 10
313.5305285358001
 20
165.8434674438002
 30
0.0
  0
VERTEX
  5
4F4
  8
SLD-0
 10
313.8296734352163
 20
166.1676439146116
 30
0.0
  0
VERTEX
  5
4F5
  8
SLD-0
 10
313.8623037566457
 20
166.1375331721586
 30
0.0
  0
SEQEND
  5
CFD
  8
SLD-0
  0
POLYLINE
  5
D1
  8
SLD-0
 66
     1
 10
0.0
 20
0.0
 30
0.0
 70
     1
  0
VERTEX
  5
4F6
  8
SLD-0
 10
313.5251713561114
 20
162.8484228618019
 30
0.0
  0
VERTEX
  5
4F7
  8
SLD-0
 10
313.4925638212193
 20
162.8785125772001
 30
0.0
  0
VERTEX
  5
4F8
  8
SLD-0
 10
314.3827371765487
 20
163.8431730387495
 30
0.0
  0
VERTEX
  5
4F9
  8
SLD-0
 10
314.4352430866685
 20
164.3681112316711
 30
0.0
  0
VERTEX
  5
4FA
  8
SLD-0
 10
314.2049623406033
 20
164.5806106473342
 30
0.0
  0
VERTEX
  5
4FB
  8
SLD-0
 10
313.1446221846217
 20
164.3854070053831
 30
0.0
  0
VERTEX
  5
4FC
  8
SLD-0
 10
312.5536217647816
 20
163.7449533966949
 30
0.0
  0
VERTEX
  5
4FD
  8
SLD-0
 10
312.5209914433522
 20
163.7750641391478
 30
0.0
  0
VERTEX
  5
4FE
  8
SLD-0
 10
313.7168421031179
 20
165.0709800890999
 30
0.0
  0
VERTEX
  5
4FF
  8
SLD-0
 10
313.7494724245473
 20
165.040869346647
 30
0.0
  0
VERTEX
  5
500
  8
SLD-0
 10
313.1996009238678
 20
164.444986204939
 30
0.0
  0
VERTEX
  5
501
  8
SLD-0
 10
314.2337095749743
 20
164.6355379238579
 30
0.0
  0
VERTEX
  5
502
  8
SLD-0
 10
314.4886909274846
 20
164.4002451808072
 30
0.0
  0
VERTEX
  5
503
  8
SLD-0
 10
314.4302879383751
 20
163.829276955867
 30
0.0
  0
SEQEND
  5
CFE
  8
SLD-0
  0
POLYLINE
  5
D2
  8
SLD-0
 66
     1
 10
0.0
 20
0.0
 30
0.0
 70
     1
  0
VERTEX
  5
504
  8
SLD-0
 10
206.694532653633
 20
218.9062855094675
 30
0.0
  0
VERTEX
  5
505
  8
SLD-0
 10
206.3220140176052
 20
218.4715693319486
 30
0.0
  0
VERTEX
  5
506
  8
SLD-0
 10
205.9757216305322
 20
218.4935070617296
 30
0.0
  0
VERTEX
  5
507
  8
SLD-0
 10
205.6610397186093
 20
218.9717576064162
 30
0.0
  0
VERTEX
  5
508
  8
SLD-0
 10
205.7738798782737
 20
220.7529669037343
 30
0.0
  0
VERTEX
  5
509
  8
SLD-0
 10
206.1465135186336
 20
221.1894984525374
 30
0.0
  0
VERTEX
  5
50A
  8
SLD-0
 10
206.4928059057065
 20
221.1675607227564
 30
0.0
  0
VERTEX
  5
50B
  8
SLD-0
 10
206.8073728132974
 20
220.6874948067855
 30
0.0
  0
SEQEND
  5
CFF
  8
SLD-0
  0
POLYLINE
  5
D3
  8
SLD-0
 66
     1
 10
0.0
 20
0.0
 30
0.0
 70
     1
  0
VERTEX
  5
50C
  8
SLD-0
 10
206.6515771983055
 20
218.9300087285701
 30
0.0
  0
VERTEX
  5
50D
  8
SLD-0
 10
206.7616598677345
 20
220.6676903735054
 30
0.0
  0
VERTEX
  5
50E
  8
SLD-0
 10
206.4730036113334
 20
221.1099930969822
 30
0.0
  0
VERTEX
  5
50F
  8
SLD-0
 10
206.1589237499456
 20
221.1298901533022
 30
0.0
  0
VERTEX
  5
510
  8
SLD-0
 10
205.8167591143022
 20
220.7275501283612
 30
0.0
  0
VERTEX
  5
511
  8
SLD-0
 10
205.7066764448733
 20
218.9898684834259
 30
0.0
  0
VERTEX
  5
512
  8
SLD-0
 10
205.9954424781368
 20
218.5492986143567
 30
0.0
  0
VERTEX
  5
513
  8
SLD-0
 10
206.3095223395246
 20
218.5294015580368
 30
0.0
  0
SEQEND
  5
D00
  8
SLD-0
  0
POLYLINE
  5
D4
  8
SLD-0
 66
     1
 10
0.0
 20
0.0
 30
0.0
 70
     1
  0
VERTEX
  5
514
  8
SLD-0
 10
207.3297635106786
 20
218.4342394622856
 30
0.0
  0
VERTEX
  5
515
  8
SLD-0
 10
207.2854519479685
 20
218.4370466134827
 30
0.0
  0
VERTEX
  5
516
  8
SLD-0
 10
207.3133875457284
 20
218.8780168017931
 30
0.0
  0
VERTEX
  5
517
  8
SLD-0
 10
207.3576991084385
 20
218.875209650596
 30
0.0
  0
SEQEND
  5
D01
  8
SLD-0
  0
POLYLINE
  5
D5
  8
SLD-0
 66
     1
 10
0.0
 20
0.0
 30
0.0
 70
     1
  0
VERTEX
  5
518
  8
SLD-0
 10
209.0056653321878
 20
218.7598745397704
 30
0.0
  0
VERTEX
  5
519
  8
SLD-0
 10
208.6331466961601
 20
218.3251583622516
 30
0.0
  0
VERTEX
  5
51A
  8
SLD-0
 10
208.2868543090871
 20
218.3470960920326
 30
0.0
  0
VERTEX
  5
51B
  8
SLD-0
 10
207.9721723971641
 20
218.8253466367192
 30
0.0
  0
VERTEX
  5
51C
  8
SLD-0
 10
208.0850125568285
 20
220.6065559340373
 30
0.0
  0
VERTEX
  5
51D
  8
SLD-0
 10
208.4576461971884
 20
221.0430874828403
 30
0.0
  0
VERTEX
  5
51E
  8
SLD-0
 10
208.8039385842614
 20
221.0211497530594
 30
0.0
  0
VERTEX
  5
51F
  8
SLD-0
 10
209.1185054918522
 20
220.5410838370885
 30
0.0
  0
SEQEND
  5
D02
  8
SLD-0
  0
POLYLINE
  5
D6
  8
SLD-0
 66
     1
 10
0.0
 20
0.0
 30
0.0
 70
     1
  0
VERTEX
  5
520
  8
SLD-0
 10
208.9627098768604
 20
218.7835977588731
 30
0.0
  0
VERTEX
  5
521
  8
SLD-0
 10
209.0727925462893
 20
220.5212794038084
 30
0.0
  0
VERTEX
  5
522
  8
SLD-0
 10
208.7841362898882
 20
220.9635821272852
 30
0.0
  0
VERTEX
  5
523
  8
SLD-0
 10
208.4700564285004
 20
220.9834791836052
 30
0.0
  0
VERTEX
  5
524
  8
SLD-0
 10
208.127891792857
 20
220.5811391586641
 30
0.0
  0
VERTEX
  5
525
  8
SLD-0
 10
208.0178091234281
 20
218.8434575137289
 30
0.0
  0
VERTEX
  5
526
  8
SLD-0
 10
208.3065751566917
 20
218.4028876446597
 30
0.0
  0
VERTEX
  5
527
  8
SLD-0
 10
208.6206550180794
 20
218.3829905883397
 30
0.0
  0
SEQEND
  5
D03
  8
SLD-0
  0
POLYLINE
  5
D7
  8
SLD-0
 66
     1
 10
0.0
 20
0.0
 30
0.0
 70
     1
  0
VERTEX
  5
528
  8
SLD-0
 10
210.9874937856305
 20
218.634325094542
 30
0.0
  0
VERTEX
  5
529
  8
SLD-0
 10
210.6149751496027
 20
218.1996089170233
 30
0.0
  0
VERTEX
  5
52A
  8
SLD-0
 10
209.9385121102137
 20
218.2424630597041
 30
0.0
  0
VERTEX
  5
52B
  8
SLD-0
 10
209.6238301982907
 20
218.7207136043907
 30
0.0
  0
VERTEX
  5
52C
  8
SLD-0
 10
209.7088863568147
 20
220.0633457028185
 30
0.0
  0
VERTEX
  5
52D
  8
SLD-0
 10
210.4395055944597
 20
220.9175360773108
 30
0.0
  0
VERTEX
  5
52E
  8
SLD-0
 10
210.7763910576054
 20
220.8961942790689
 30
0.0
  0
VERTEX
  5
52F
  8
SLD-0
 10
210.7727631936748
 20
220.8389275667397
 30
0.0
  0
VERTEX
  5
530
  8
SLD-0
 10
210.4519685214573
 20
220.8592500084017
 30
0.0
  0
VERTEX
  5
531
  8
SLD-0
 10
209.7517237730861
 20
220.0372687924329
 30
0.0
  0
VERTEX
  5
532
  8
SLD-0
 10
209.7264332749643
 20
219.6380521436595
 30
0.0
  0
VERTEX
  5
533
  8
SLD-0
 10
210.7021850256187
 20
219.5762379685917
 30
0.0
  0
VERTEX
  5
534
  8
SLD-0
 10
211.0167545469444
 20
219.0962133110592
 30
0.0
  0
SEQEND
  5
D04
  8
SLD-0
  0
POLYLINE
  5
D8
  8
SLD-0
 66
     1
 10
0.0
 20
0.0
 30
0.0
 70
     1
  0
VERTEX
  5
535
  8
SLD-0
 10
210.944538330303
 20
218.6580483136447
 30
0.0
  0
VERTEX
  5
536
  8
SLD-0
 10
210.9710651249948
 20
219.0767802037235
 30
0.0
  0
VERTEX
  5
537
  8
SLD-0
 10
210.6809349495333
 20
219.5173950676035
 30
0.0
  0
VERTEX
  5
538
  8
SLD-0
 10
209.7226355182704
 20
219.5781036328422
 30
0.0
  0
VERTEX
  5
539
  8
SLD-0
 10
209.6694669245547
 20
218.7388244814004
 30
0.0
  0
VERTEX
  5
53A
  8
SLD-0
 10
209.9582329578182
 20
218.2982546123312
 30
0.0
  0
VERTEX
  5
53B
  8
SLD-0
 10
210.6011219430589
 20
218.2575273963604
 30
0.0
  0
SEQEND
  5
D05
  8
SLD-0
  0
POLYLINE
  5
D9
  8
SLD-0
 66
     1
 10
0.0
 20
0.0
 30
0.0
 70
     1
  0
VERTEX
  5
53C
  8
SLD-0
 10
211.6213012265554
 20
218.1623692212115
 30
0.0
  0
VERTEX
  5
53D
  8
SLD-0
 10
211.5769896638454
 20
218.1651763724086
 30
0.0
  0
VERTEX
  5
53E
  8
SLD-0
 10
211.6884340891157
 20
219.9243536636864
 30
0.0
  0
VERTEX
  5
53F
  8
SLD-0
 10
211.7327456518258
 20
219.9215465124894
 30
0.0
  0
SEQEND
  5
D06
  8
SLD-0
  0
POLYLINE
  5
DA
  8
SLD-0
 66
     1
 10
0.0
 20
0.0
 30
0.0
 70
     1
  0
VERTEX
  5
540
  8
SLD-0
 10
211.760691704525
 20
220.3626817345528
 30
0.0
  0
VERTEX
  5
541
  8
SLD-0
 10
211.7163801418149
 20
220.3654888857499
 30
0.0
  0
VERTEX
  5
542
  8
SLD-0
 10
211.7442686923481
 20
220.8057164221713
 30
0.0
  0
VERTEX
  5
543
  8
SLD-0
 10
211.7885802550582
 20
220.8029092709742
 30
0.0
  0
SEQEND
  5
D07
  8
SLD-0
  0
POLYLINE
  5
DB
  8
SLD-0
 66
     1
 10
0.0
 20
0.0
 30
0.0
 70
     1
  0
VERTEX
  5
544
  8
SLD-0
 10
213.6001281286134
 20
218.0370099251913
 30
0.0
  0
VERTEX
  5
545
  8
SLD-0
 10
213.555847509732
 20
218.0398151160873
 30
0.0
  0
VERTEX
  5
546
  8
SLD-0
 10
213.6388362040131
 20
219.3498117898375
 30
0.0
  0
VERTEX
  5
547
  8
SLD-0
 10
213.3487060285516
 20
219.7904266537175
 30
0.0
  0
VERTEX
  5
548
  8
SLD-0
 10
213.0359876956269
 20
219.8102374567884
 30
0.0
  0
VERTEX
  5
549
  8
SLD-0
 10
212.3358736339968
 20
218.9903191627336
 30
0.0
  0
VERTEX
  5
54A
  8
SLD-0
 10
212.2807761039837
 20
218.1205912838429
 30
0.0
  0
VERTEX
  5
54B
  8
SLD-0
 10
212.2364645412736
 20
218.12339843504
 30
0.0
  0
VERTEX
  5
54C
  8
SLD-0
 10
212.347950786301
 20
219.8832358613303
 30
0.0
  0
VERTEX
  5
54D
  8
SLD-0
 10
212.3922623490111
 20
219.8804287101333
 30
0.0
  0
VERTEX
  5
54E
  8
SLD-0
 10
212.3409991679795
 20
219.0712269601958
 30
0.0
  0
VERTEX
  5
54F
  8
SLD-0
 10
213.0236815927186
 20
219.8709990319942
 30
0.0
  0
VERTEX
  5
550
  8
SLD-0
 10
213.3699430359628
 20
219.8490632625144
 30
0.0
  0
VERTEX
  5
551
  8
SLD-0
 10
213.6845099435537
 20
219.3689973465435
 30
0.0
  0
SEQEND
  5
D08
  8
SLD-0
  0
POLYLINE
  5
DC
  8
SLD-0
 66
     1
 10
0.0
 20
0.0
 30
0.0
 70
     1
  0
VERTEX
  5
552
  8
SLD-0
 10
203.907627729412
 20
216.3353012121951
 30
0.0
  0
VERTEX
  5
553
  8
SLD-0
 10
203.5350045439914
 20
215.8989346971452
 30
0.0
  0
VERTEX
  5
554
  8
SLD-0
 10
202.9189438582407
 20
215.9379623320491
 30
0.0
  0
VERTEX
  5
555
  8
SLD-0
 10
203.7916195970691
 20
214.6105050009617
 30
0.0
  0
VERTEX
  5
556
  8
SLD-0
 10
203.756686173436
 20
214.5695956401758
 30
0.0
  0
VERTEX
  5
557
  8
SLD-0
 10
202.8584604788229
 20
215.9405098282395
 30
0.0
  0
VERTEX
  5
558
  8
SLD-0
 10
202.5591717675576
 20
215.9594698606263
 30
0.0
  0
VERTEX
  5
559
  8
SLD-0
 10
202.4774324385207
 20
214.6691947203727
 30
0.0
  0
VERTEX
  5
55A
  8
SLD-0
 10
202.4331208758106
 20
214.6720018715698
 30
0.0
  0
VERTEX
  5
55B
  8
SLD-0
 10
202.6022399736269
 20
217.3415878618799
 30
0.0
  0
VERTEX
  5
55C
  8
SLD-0
 10
203.6223032869913
 20
217.2769665356151
 30
0.0
  0
VERTEX
  5
55D
  8
SLD-0
 10
203.9368806495214
 20
216.7970656533974
 30
0.0
  0
SEQEND
  5
D09
  8
SLD-0
  0
POLYLINE
  5
DD
  8
SLD-0
 66
     1
 10
0.0
 20
0.0
 30
0.0
 70
     1
  0
VERTEX
  5
55E
  8
SLD-0
 10
203.8647402311899
 20
216.360097150693
 30
0.0
  0
VERTEX
  5
55F
  8
SLD-0
 10
203.8911572490192
 20
216.7770961863641
 30
0.0
  0
VERTEX
  5
560
  8
SLD-0
 10
203.601139464155
 20
217.21948516309
 30
0.0
  0
VERTEX
  5
561
  8
SLD-0
 10
202.642840032892
 20
217.2801937283288
 30
0.0
  0
VERTEX
  5
562
  8
SLD-0
 10
202.5629146358204
 20
216.0185519442398
 30
0.0
  0
VERTEX
  5
563
  8
SLD-0
 10
203.5212140670833
 20
215.9578433790011
 30
0.0
  0
SEQEND
  5
D0A
  8
SLD-0
  0
POLYLINE
  5
DE
  8
SLD-0
 66
     1
 10
0.0
 20
0.0
 30
0.0
 70
     1
  0
VERTEX
  5
564
  8
SLD-0
 10
205.0937003884318
 20
214.4769419646202
 30
0.0
  0
VERTEX
  5
565
  8
SLD-0
 10
204.4333281399711
 20
214.5187767507211
 30
0.0
  0
VERTEX
  5
566
  8
SLD-0
 10
204.4369560039017
 20
214.5760434630503
 30
0.0
  0
VERTEX
  5
567
  8
SLD-0
 10
204.745682582923
 20
214.5564855388233
 30
0.0
  0
VERTEX
  5
568
  8
SLD-0
 10
204.9066102358123
 20
217.0967675835716
 30
0.0
  0
VERTEX
  5
569
  8
SLD-0
 10
204.5891670695501
 20
216.7232252519661
 30
0.0
  0
VERTEX
  5
56A
  8
SLD-0
 10
204.5596780555477
 20
216.7682572181123
 30
0.0
  0
VERTEX
  5
56B
  8
SLD-0
 10
204.9249147002898
 20
217.1944456998669
 30
0.0
  0
VERTEX
  5
56C
  8
SLD-0
 10
204.9557966413406
 20
217.1924893193538
 30
0.0
  0
VERTEX
  5
56D
  8
SLD-0
 10
204.7886326171699
 20
214.5537646408753
 30
0.0
  0
VERTEX
  5
56E
  8
SLD-0
 10
205.0973282523625
 20
214.5342086769494
 30
0.0
  0
SEQEND
  5
D0B
  8
SLD-0
  0
POLYLINE
  5
DF
  8
SLD-0
 66
     1
 10
0.0
 20
0.0
 30
0.0
 70
     1
  0
VERTEX
  5
56F
  8
SLD-0
 10
205.7787676357365
 20
214.4600541149871
 30
0.0
  0
VERTEX
  5
570
  8
SLD-0
 10
205.7344560730264
 20
214.4628612661842
 30
0.0
  0
VERTEX
  5
571
  8
SLD-0
 10
205.7623916707864
 20
214.9038314544946
 30
0.0
  0
VERTEX
  5
572
  8
SLD-0
 10
205.8067032334964
 20
214.9010243032975
 30
0.0
  0
SEQEND
  5
D0C
  8
SLD-0
  0
POLYLINE
  5
E0
  8
SLD-0
 66
     1
 10
0.0
 20
0.0
 30
0.0
 70
     1
  0
VERTEX
  5
573
  8
SLD-0
 10
207.7848348820922
 20
214.7646902626955
 30
0.0
  0
VERTEX
  5
574
  8
SLD-0
 10
207.412321473534
 20
214.3300566020533
 30
0.0
  0
VERTEX
  5
575
  8
SLD-0
 10
206.735858434145
 20
214.3729107447341
 30
0.0
  0
VERTEX
  5
576
  8
SLD-0
 10
206.425881177364
 20
214.8400930030745
 30
0.0
  0
VERTEX
  5
577
  8
SLD-0
 10
206.4608146009971
 20
214.8810023638605
 30
0.0
  0
VERTEX
  5
578
  8
SLD-0
 10
206.7556080328326
 20
214.4291561401823
 30
0.0
  0
VERTEX
  5
579
  8
SLD-0
 10
207.3984970180733
 20
214.3884289242115
 30
0.0
  0
VERTEX
  5
57A
  8
SLD-0
 10
207.7419212465219
 20
214.7890736168106
 30
0.0
  0
VERTEX
  5
57B
  8
SLD-0
 10
207.7963575016254
 20
215.648363110817
 30
0.0
  0
VERTEX
  5
57C
  8
SLD-0
 10
207.5062351673683
 20
216.0891017500118
 30
0.0
  0
VERTEX
  5
57D
  8
SLD-0
 10
206.5036241733953
 20
216.1526174664476
 30
0.0
  0
VERTEX
  5
57E
  8
SLD-0
 10
206.563050048271
 20
217.0906693191258
 30
0.0
  0
VERTEX
  5
57F
  8
SLD-0
 10
207.9039080338528
 20
217.005725551199
 30
0.0
  0
VERTEX
  5
580
  8
SLD-0
 10
207.9002775561873
 20
216.9484175804315
 30
0.0
  0
VERTEX
  5
581
  8
SLD-0
 10
206.6037311333156
 20
217.0305541971612
 30
0.0
  0
VERTEX
  5
582
  8
SLD-0
 10
206.5516576944896
 20
216.2085623313577
 30
0.0
  0
VERTEX
  5
583
  8
SLD-0
 10
207.5274094451439
 20
216.14674815629
 30
0.0
  0
VERTEX
  5
584
  8
SLD-0
 10
207.8419815802044
 20
215.6667647571957
 30
0.0
  0
SEQEND
  5
D0D
  8
SLD-0
  0
POLYLINE
  5
E1
  8
SLD-0
 66
     1
 10
0.0
 20
0.0
 30
0.0
 70
     1
  0
VERTEX
  5
585
  8
SLD-0
 10
209.7652451468838
 20
214.639313508195
 30
0.0
  0
VERTEX
  5
586
  8
SLD-0
 10
209.3927265108561
 20
214.2045973306762
 30
0.0
  0
VERTEX
  5
587
  8
SLD-0
 10
208.716263471467
 20
214.247451473357
 30
0.0
  0
VERTEX
  5
588
  8
SLD-0
 10
208.4015815595441
 20
214.7257020180437
 30
0.0
  0
VERTEX
  5
589
  8
SLD-0
 10
208.4866377180681
 20
216.0683341164715
 30
0.0
  0
VERTEX
  5
58A
  8
SLD-0
 10
209.2172569557131
 20
216.9225244909638
 30
0.0
  0
VERTEX
  5
58B
  8
SLD-0
 10
209.5541424188588
 20
216.9011826927218
 30
0.0
  0
VERTEX
  5
58C
  8
SLD-0
 10
209.5505145549282
 20
216.8439159803926
 30
0.0
  0
VERTEX
  5
58D
  8
SLD-0
 10
209.2297198827107
 20
216.8642384220546
 30
0.0
  0
VERTEX
  5
58E
  8
SLD-0
 10
208.5294751343395
 20
216.0422572060859
 30
0.0
  0
VERTEX
  5
58F
  8
SLD-0
 10
208.5041846362177
 20
215.6430405573124
 30
0.0
  0
VERTEX
  5
590
  8
SLD-0
 10
209.4799363868721
 20
215.5812263822447
 30
0.0
  0
VERTEX
  5
591
  8
SLD-0
 10
209.7945059081977
 20
215.1012017247121
 30
0.0
  0
SEQEND
  5
D0E
  8
SLD-0
  0
POLYLINE
  5
E2
  8
SLD-0
 66
     1
 10
0.0
 20
0.0
 30
0.0
 70
     1
  0
VERTEX
  5
592
  8
SLD-0
 10
209.7222896915564
 20
214.6630367272977
 30
0.0
  0
VERTEX
  5
593
  8
SLD-0
 10
209.7488164862482
 20
215.0817686173764
 30
0.0
  0
VERTEX
  5
594
  8
SLD-0
 10
209.4586863107867
 20
215.5223834812564
 30
0.0
  0
VERTEX
  5
595
  8
SLD-0
 10
208.5003868795238
 20
215.5830920464951
 30
0.0
  0
VERTEX
  5
596
  8
SLD-0
 10
208.4472182858081
 20
214.7438128950533
 30
0.0
  0
VERTEX
  5
597
  8
SLD-0
 10
208.7359843190716
 20
214.3032430259842
 30
0.0
  0
VERTEX
  5
598
  8
SLD-0
 10
209.3788733043123
 20
214.2625158100134
 30
0.0
  0
SEQEND
  5
D0F
  8
SLD-0
  0
POLYLINE
  5
E3
  8
SLD-0
 66
     1
 10
0.0
 20
0.0
 30
0.0
 70
     1
  0
VERTEX
  5
599
  8
SLD-0
 10
211.7184046124385
 20
214.0837762762128
 30
0.0
  0
VERTEX
  5
59A
  8
SLD-0
 10
211.6741239935571
 20
214.0865814671087
 30
0.0
  0
VERTEX
  5
59B
  8
SLD-0
 10
211.7571126878383
 20
215.396578140859
 30
0.0
  0
VERTEX
  5
59C
  8
SLD-0
 10
211.4743766668815
 20
215.8259129137575
 30
0.0
  0
VERTEX
  5
59D
  8
SLD-0
 10
211.1410520020875
 20
215.4356057757629
 30
0.0
  0
VERTEX
  5
59E
  8
SLD-0
 10
211.1138430226077
 20
215.0061054332936
 30
0.0
  0
VERTEX
  5
59F
  8
SLD-0
 10
211.0695314598976
 20
215.0089125844907
 30
0.0
  0
VERTEX
  5
5A0
  8
SLD-0
 10
211.0967404393775
 20
215.4384129269599
 30
0.0
  0
VERTEX
  5
5A1
  8
SLD-0
 10
210.8153659468838
 20
215.8676614466093
 30
0.0
  0
VERTEX
  5
5A2
  8
SLD-0
 10
210.4820412820899
 20
215.4773543086147
 30
0.0
  0
VERTEX
  5
5A3
  8
SLD-0
 10
210.3990525878088
 20
214.1673576348644
 30
0.0
  0
VERTEX
  5
5A4
  8
SLD-0
 10
210.3547410250987
 20
214.1701647860615
 30
0.0
  0
VERTEX
  5
5A5
  8
SLD-0
 10
210.4662168151869
 20
215.9298371785987
 30
0.0
  0
VERTEX
  5
5A6
  8
SLD-0
 10
210.510528377897
 20
215.9270300274016
 30
0.0
  0
VERTEX
  5
5A7
  8
SLD-0
 10
210.4871668160727
 20
215.558262106077
 30
0.0
  0
VERTEX
  5
5A8
  8
SLD-0
 10
210.8205019358058
 20
215.9487342778247
 30
0.0
  0
VERTEX
  5
5A9
  8
SLD-0
 10
211.1227761963842
 20
215.4874665531886
 30
0.0
  0
VERTEX
  5
5AA
  8
SLD-0
 10
211.4795126558035
 20
215.9069857449728
 30
0.0
  0
VERTEX
  5
5AB
  8
SLD-0
 10
211.8027759724396
 20
215.4155986638119
 30
0.0
  0
SEQEND
  5
D10
  8
SLD-0
  0
POLYLINE
  5
E4
  8
SLD-0
 66
     1
 10
0.0
 20
0.0
 30
0.0
 70
     1
  0
VERTEX
  5
5AC
  8
SLD-0
 10
213.6988096497606
 20
213.9583170048357
 30
0.0
  0
VERTEX
  5
5AD
  8
SLD-0
 10
213.6545290308792
 20
213.9611221957317
 30
0.0
  0
VERTEX
  5
5AE
  8
SLD-0
 10
213.7375177251603
 20
215.2711188694819
 30
0.0
  0
VERTEX
  5
5AF
  8
SLD-0
 10
213.4547817042035
 20
215.7004536423804
 30
0.0
  0
VERTEX
  5
5B0
  8
SLD-0
 10
213.1214570394096
 20
215.3101465043858
 30
0.0
  0
VERTEX
  5
5B1
  8
SLD-0
 10
213.0942480599297
 20
214.8806461619166
 30
0.0
  0
VERTEX
  5
5B2
  8
SLD-0
 10
213.0499364972196
 20
214.8834533131136
 30
0.0
  0
VERTEX
  5
5B3
  8
SLD-0
 10
213.0771454766995
 20
215.3129536555828
 30
0.0
  0
VERTEX
  5
5B4
  8
SLD-0
 10
212.7957709842059
 20
215.7422021752322
 30
0.0
  0
VERTEX
  5
5B5
  8
SLD-0
 10
212.462446319412
 20
215.3518950372376
 30
0.0
  0
VERTEX
  5
5B6
  8
SLD-0
 10
212.3794576251309
 20
214.0418983634873
 30
0.0
  0
VERTEX
  5
5B7
  8
SLD-0
 10
212.3351460624208
 20
214.0447055146844
 30
0.0
  0
VERTEX
  5
5B8
  8
SLD-0
 10
212.446621852509
 20
215.8043779072216
 30
0.0
  0
VERTEX
  5
5B9
  8
SLD-0
 10
212.490933415219
 20
215.8015707560245
 30
0.0
  0
VERTEX
  5
5BA
  8
SLD-0
 10
212.4675718533947
 20
215.4328028346999
 30
0.0
  0
VERTEX
  5
5BB
  8
SLD-0
 10
212.8009069731279
 20
215.8232750064476
 30
0.0
  0
VERTEX
  5
5BC
  8
SLD-0
 10
213.1031812337063
 20
215.3620072818115
 30
0.0
  0
VERTEX
  5
5BD
  8
SLD-0
 10
213.4599176931255
 20
215.7815264735958
 30
0.0
  0
VERTEX
  5
5BE
  8
SLD-0
 10
213.7831810097616
 20
215.2901393924348
 30
0.0
  0
SEQEND
  5
D11
  8
SLD-0
  0
POLYLINE
  5
E5
  8
SLD-0
 66
     1
 10
0.0
 20
0.0
 30
0.0
 70
     1
  0
VERTEX
  5
5BF
  8
SLD-0
 10
336.8855276851134
 20
116.2968087774241
 30
0.0
  0
VERTEX
  5
5C0
  8
SLD-0
 10
336.4300901851134
 20
115.6917462774241
 30
0.0
  0
VERTEX
  5
5C1
  8
SLD-0
 10
335.5334476069884
 20
115.6917462774241
 30
0.0
  0
VERTEX
  5
5C2
  8
SLD-0
 10
335.0780101069884
 20
116.2968087774241
 30
0.0
  0
VERTEX
  5
5C3
  8
SLD-0
 10
335.0780101069884
 20
118.0764494024241
 30
0.0
  0
VERTEX
  5
5C4
  8
SLD-0
 10
335.9711253413634
 20
119.2652462774241
 30
0.0
  0
VERTEX
  5
5C5
  8
SLD-0
 10
336.4176624507384
 20
119.2652462774241
 30
0.0
  0
VERTEX
  5
5C6
  8
SLD-0
 10
336.4176624507384
 20
119.1893400274241
 30
0.0
  0
VERTEX
  5
5C7
  8
SLD-0
 10
335.9924534663634
 20
119.1893400274241
 30
0.0
  0
VERTEX
  5
5C8
  8
SLD-0
 10
335.1367444819884
 20
118.0456056524241
 30
0.0
  0
VERTEX
  5
5C9
  8
SLD-0
 10
335.1367444819884
 20
117.5164494024241
 30
0.0
  0
VERTEX
  5
5CA
  8
SLD-0
 10
336.4300901851134
 20
117.5164494024241
 30
0.0
  0
VERTEX
  5
5CB
  8
SLD-0
 10
336.8855276851134
 20
116.9090353399241
 30
0.0
  0
SEQEND
  5
D12
  8
SLD-0
  0
POLYLINE
  5
E6
  8
SLD-0
 66
     1
 10
0.0
 20
0.0
 30
0.0
 70
     1
  0
VERTEX
  5
5CC
  8
SLD-0
 10
336.8268343257384
 20
116.3245353399241
 30
0.0
  0
VERTEX
  5
5CD
  8
SLD-0
 10
336.8268343257384
 20
116.8795587774241
 30
0.0
  0
VERTEX
  5
5CE
  8
SLD-0
 10
336.4069573726134
 20
117.4369884649241
 30
0.0
  0
VERTEX
  5
5CF
  8
SLD-0
 10
335.1367444819884
 20
117.4369884649241
 30
0.0
  0
VERTEX
  5
5D0
  8
SLD-0
 10
335.1367444819884
 20
116.3245353399241
 30
0.0
  0
VERTEX
  5
5D1
  8
SLD-0
 10
335.5548167476134
 20
115.7670509649241
 30
0.0
  0
VERTEX
  5
5D2
  8
SLD-0
 10
336.4069573726134
 20
115.7670509649241
 30
0.0
  0
SEQEND
  5
D13
  8
SLD-0
  0
POLYLINE
  5
E7
  8
SLD-0
 66
     1
 10
0.0
 20
0.0
 30
0.0
 70
     1
  0
VERTEX
  5
5D3
  8
SLD-0
 10
339.0728909663634
 20
116.2968087774241
 30
0.0
  0
VERTEX
  5
5D4
  8
SLD-0
 10
338.6174534663634
 20
115.6917462774241
 30
0.0
  0
VERTEX
  5
5D5
  8
SLD-0
 10
338.1584476069884
 20
115.6917462774241
 30
0.0
  0
VERTEX
  5
5D6
  8
SLD-0
 10
337.7030101069884
 20
116.2968087774241
 30
0.0
  0
VERTEX
  5
5D7
  8
SLD-0
 10
337.7030101069884
 20
118.6577775274241
 30
0.0
  0
VERTEX
  5
5D8
  8
SLD-0
 10
338.1584476069884
 20
119.2652462774241
 30
0.0
  0
VERTEX
  5
5D9
  8
SLD-0
 10
338.6174534663634
 20
119.2652462774241
 30
0.0
  0
VERTEX
  5
5DA
  8
SLD-0
 10
339.0728909663634
 20
118.6577775274241
 30
0.0
  0
SEQEND
  5
D14
  8
SLD-0
  0
POLYLINE
  5
E8
  8
SLD-0
 66
     1
 10
0.0
 20
0.0
 30
0.0
 70
     1
  0
VERTEX
  5
5DB
  8
SLD-0
 10
339.0141976069884
 20
116.3245353399241
 30
0.0
  0
VERTEX
  5
5DC
  8
SLD-0
 10
339.0141976069884
 20
118.6278087774241
 30
0.0
  0
VERTEX
  5
5DD
  8
SLD-0
 10
338.5961253413634
 20
119.1875900274241
 30
0.0
  0
VERTEX
  5
5DE
  8
SLD-0
 10
338.1798167476134
 20
119.1875900274241
 30
0.0
  0
VERTEX
  5
5DF
  8
SLD-0
 10
337.7617444819884
 20
118.6278087774241
 30
0.0
  0
VERTEX
  5
5E0
  8
SLD-0
 10
337.7617444819884
 20
116.3245353399241
 30
0.0
  0
VERTEX
  5
5E1
  8
SLD-0
 10
338.1798167476134
 20
115.7670509649241
 30
0.0
  0
VERTEX
  5
5E2
  8
SLD-0
 10
338.5961253413634
 20
115.7670509649241
 30
0.0
  0
SEQEND
  5
D15
  8
SLD-0
  0
POLYLINE
  5
E9
  8
SLD-0
 66
     1
 10
0.0
 20
0.0
 30
0.0
 70
     1
  0
VERTEX
  5
5E3
  8
SLD-0
 10
344.2945491694884
 20
119.1892853399241
 30
0.0
  0
VERTEX
  5
5E4
  8
SLD-0
 10
343.4495042476134
 20
119.1892853399241
 30
0.0
  0
VERTEX
  5
5E5
  8
SLD-0
 10
343.4495042476134
 20
115.7267462774241
 30
0.0
  0
VERTEX
  5
5E6
  8
SLD-0
 10
343.3907698726134
 20
115.7267462774241
 30
0.0
  0
VERTEX
  5
5E7
  8
SLD-0
 10
343.3907698726134
 20
119.1892853399241
 30
0.0
  0
VERTEX
  5
5E8
  8
SLD-0
 10
342.5457249507384
 20
119.1892853399241
 30
0.0
  0
VERTEX
  5
5E9
  8
SLD-0
 10
342.5457249507384
 20
119.2652462774241
 30
0.0
  0
VERTEX
  5
5EA
  8
SLD-0
 10
344.2945491694884
 20
119.2652462774241
 30
0.0
  0
SEQEND
  5
D16
  8
SLD-0
  0
POLYLINE
  5
EA
  8
SLD-0
 66
     1
 10
0.0
 20
0.0
 30
0.0
 70
     1
  0
VERTEX
  5
5EB
  8
SLD-0
 10
346.9604827632384
 20
117.4781681524241
 30
0.0
  0
VERTEX
  5
5EC
  8
SLD-0
 10
346.4943401851134
 20
116.8565900274241
 30
0.0
  0
VERTEX
  5
5ED
  8
SLD-0
 10
345.2009944819884
 20
116.8565900274241
 30
0.0
  0
VERTEX
  5
5EE
  8
SLD-0
 10
345.2009944819884
 20
116.3251915899241
 30
0.0
  0
VERTEX
  5
5EF
  8
SLD-0
 10
345.6190667476134
 20
115.7676525274241
 30
0.0
  0
VERTEX
  5
5F0
  8
SLD-0
 10
346.4819124507384
 20
115.7676525274241
 30
0.0
  0
VERTEX
  5
5F1
  8
SLD-0
 10
346.4819124507384
 20
115.6917462774241
 30
0.0
  0
VERTEX
  5
5F2
  8
SLD-0
 10
345.5976976069884
 20
115.6917462774241
 30
0.0
  0
VERTEX
  5
5F3
  8
SLD-0
 10
345.1422601069884
 20
116.2966994024241
 30
0.0
  0
VERTEX
  5
5F4
  8
SLD-0
 10
345.1422601069884
 20
117.4923869024241
 30
0.0
  0
VERTEX
  5
5F5
  8
SLD-0
 10
345.5976976069884
 20
118.0997462774241
 30
0.0
  0
VERTEX
  5
5F6
  8
SLD-0
 10
346.4943401851134
 20
118.0997462774241
 30
0.0
  0
SEQEND
  5
D17
  8
SLD-0
  0
POLYLINE
  5
EB
  8
SLD-0
 66
     1
 10
0.0
 20
0.0
 30
0.0
 70
     1
  0
VERTEX
  5
5F7
  8
SLD-0
 10
346.8804202632384
 20
117.4773478399241
 30
0.0
  0
VERTEX
  5
5F8
  8
SLD-0
 10
346.4712073726134
 20
118.0205587774241
 30
0.0
  0
VERTEX
  5
5F9
  8
SLD-0
 10
345.6190667476134
 20
118.0205587774241
 30
0.0
  0
VERTEX
  5
5FA
  8
SLD-0
 10
345.2009944819884
 20
117.4631290899241
 30
0.0
  0
VERTEX
  5
5FB
  8
SLD-0
 10
345.2009944819884
 20
116.9317853399241
 30
0.0
  0
VERTEX
  5
5FC
  8
SLD-0
 10
346.4712073726134
 20
116.9317853399241
 30
0.0
  0
SEQEND
  5
D18
  8
SLD-0
  0
POLYLINE
  5
EC
  8
SLD-0
 66
     1
 10
0.0
 20
0.0
 30
0.0
 70
     1
  0
VERTEX
  5
5FD
  8
SLD-0
 10
349.5854827632384
 20
117.4781681524241
 30
0.0
  0
VERTEX
  5
5FE
  8
SLD-0
 10
349.1193401851134
 20
116.8565900274241
 30
0.0
  0
VERTEX
  5
5FF
  8
SLD-0
 10
347.8259944819884
 20
116.8565900274241
 30
0.0
  0
VERTEX
  5
600
  8
SLD-0
 10
347.8259944819884
 20
116.3251915899241
 30
0.0
  0
VERTEX
  5
601
  8
SLD-0
 10
348.2440667476134
 20
115.7676525274241
 30
0.0
  0
VERTEX
  5
602
  8
SLD-0
 10
349.1069124507384
 20
115.7676525274241
 30
0.0
  0
VERTEX
  5
603
  8
SLD-0
 10
349.1069124507384
 20
115.6917462774241
 30
0.0
  0
VERTEX
  5
604
  8
SLD-0
 10
348.2226976069884
 20
115.6917462774241
 30
0.0
  0
VERTEX
  5
605
  8
SLD-0
 10
347.7672601069884
 20
116.2966994024241
 30
0.0
  0
VERTEX
  5
606
  8
SLD-0
 10
347.7672601069884
 20
117.4923869024241
 30
0.0
  0
VERTEX
  5
607
  8
SLD-0
 10
348.2226976069884
 20
118.0997462774241
 30
0.0
  0
VERTEX
  5
608
  8
SLD-0
 10
349.1193401851134
 20
118.0997462774241
 30
0.0
  0
SEQEND
  5
D19
  8
SLD-0
  0
POLYLINE
  5
ED
  8
SLD-0
 66
     1
 10
0.0
 20
0.0
 30
0.0
 70
     1
  0
VERTEX
  5
609
  8
SLD-0
 10
349.5054202632384
 20
117.4773478399241
 30
0.0
  0
VERTEX
  5
60A
  8
SLD-0
 10
349.0962073726134
 20
118.0205587774241
 30
0.0
  0
VERTEX
  5
60B
  8
SLD-0
 10
348.2440667476134
 20
118.0205587774241
 30
0.0
  0
VERTEX
  5
60C
  8
SLD-0
 10
347.8259944819884
 20
117.4631290899241
 30
0.0
  0
VERTEX
  5
60D
  8
SLD-0
 10
347.8259944819884
 20
116.9317853399241
 30
0.0
  0
VERTEX
  5
60E
  8
SLD-0
 10
349.0962073726134
 20
116.9317853399241
 30
0.0
  0
SEQEND
  5
D1A
  8
SLD-0
  0
POLYLINE
  5
EE
  8
SLD-0
 66
     1
 10
0.0
 20
0.0
 30
0.0
 70
     1
  0
VERTEX
  5
60F
  8
SLD-0
 10
352.1908772944884
 20
116.2826447149241
 30
0.0
  0
VERTEX
  5
610
  8
SLD-0
 10
351.7319124507384
 20
115.6777462774241
 30
0.0
  0
VERTEX
  5
611
  8
SLD-0
 10
351.2657698726134
 20
116.2968634649241
 30
0.0
  0
VERTEX
  5
612
  8
SLD-0
 10
351.2657698726134
 20
118.0214884649241
 30
0.0
  0
VERTEX
  5
613
  8
SLD-0
 10
350.4207249507384
 20
118.0214884649241
 30
0.0
  0
VERTEX
  5
614
  8
SLD-0
 10
350.4207249507384
 20
118.0997462774241
 30
0.0
  0
VERTEX
  5
615
  8
SLD-0
 10
351.2657698726134
 20
118.0997462774241
 30
0.0
  0
VERTEX
  5
616
  8
SLD-0
 10
351.2657698726134
 20
119.2267462774241
 30
0.0
  0
VERTEX
  5
617
  8
SLD-0
 10
351.3245042476134
 20
119.2267462774241
 30
0.0
  0
VERTEX
  5
618
  8
SLD-0
 10
351.3245042476134
 20
118.0997462774241
 30
0.0
  0
VERTEX
  5
619
  8
SLD-0
 10
352.1695491694884
 20
118.0997462774241
 30
0.0
  0
VERTEX
  5
61A
  8
SLD-0
 10
352.1695491694884
 20
118.0214884649241
 30
0.0
  0
VERTEX
  5
61B
  8
SLD-0
 10
351.3245042476134
 20
118.0214884649241
 30
0.0
  0
VERTEX
  5
61C
  8
SLD-0
 10
351.3245042476134
 20
116.3253556524241
 30
0.0
  0
VERTEX
  5
61D
  8
SLD-0
 10
351.7319124507384
 20
115.7821447149241
 30
0.0
  0
VERTEX
  5
61E
  8
SLD-0
 10
352.1481800288634
 20
116.3395744024241
 30
0.0
  0
SEQEND
  5
D1B
  8
SLD-0
  0
POLYLINE
  5
EF
  8
SLD-0
 66
     1
 10
0.0
 20
0.0
 30
0.0
 70
     1
  0
VERTEX
  5
61F
  8
SLD-0
 10
354.8247776851134
 20
115.7267462774241
 30
0.0
  0
VERTEX
  5
620
  8
SLD-0
 10
354.7660843257384
 20
115.7267462774241
 30
0.0
  0
VERTEX
  5
621
  8
SLD-0
 10
354.7660843257384
 20
117.4631290899241
 30
0.0
  0
VERTEX
  5
622
  8
SLD-0
 10
354.3462073726134
 20
118.0205587774241
 30
0.0
  0
VERTEX
  5
623
  8
SLD-0
 10
353.9317034663634
 20
118.0205587774241
 30
0.0
  0
VERTEX
  5
624
  8
SLD-0
 10
353.0759944819884
 20
116.8795587774241
 30
0.0
  0
VERTEX
  5
625
  8
SLD-0
 10
353.0759944819884
 20
115.7267462774241
 30
0.0
  0
VERTEX
  5
626
  8
SLD-0
 10
353.0172601069884
 20
115.7267462774241
 30
0.0
  0
VERTEX
  5
627
  8
SLD-0
 10
353.0172601069884
 20
119.2267462774241
 30
0.0
  0
VERTEX
  5
628
  8
SLD-0
 10
353.0759944819884
 20
119.2267462774241
 30
0.0
  0
VERTEX
  5
629
  8
SLD-0
 10
353.0759944819884
 20
116.9872384649241
 30
0.0
  0
VERTEX
  5
62A
  8
SLD-0
 10
353.9103753413634
 20
118.0997462774241
 30
0.0
  0
VERTEX
  5
62B
  8
SLD-0
 10
354.3693401851134
 20
118.0997462774241
 30
0.0
  0
VERTEX
  5
62C
  8
SLD-0
 10
354.8247776851134
 20
117.4922775274241
 30
0.0
  0
SEQEND
  5
D1C
  8
SLD-0
  0
POLYLINE
  5
F0
  8
SLD-0
 66
     1
 10
0.0
 20
0.0
 30
0.0
 70
     1
  0
VERTEX
  5
62D
  8
SLD-0
 10
204.155661116708
 20
29.08353880627925
 30
0.0
  0
VERTEX
  5
62E
  8
SLD-0
 10
203.811372054208
 20
28.62614036877925
 30
0.0
  0
VERTEX
  5
62F
  8
SLD-0
 10
203.1335529624112
 20
28.62614036877925
 30
0.0
  0
VERTEX
  5
630
  8
SLD-0
 10
202.7892638999112
 20
29.08353880627925
 30
0.0
  0
VERTEX
  5
631
  8
SLD-0
 10
202.7892638999112
 20
29.54635293388342
 30
0.0
  0
VERTEX
  5
632
  8
SLD-0
 10
203.1107016440518
 20
29.97683828544591
 30
0.0
  0
VERTEX
  5
633
  8
SLD-0
 10
202.7892638999112
 20
30.40554596773758
 30
0.0
  0
VERTEX
  5
634
  8
SLD-0
 10
202.7892638999112
 20
30.86831875419591
 30
0.0
  0
VERTEX
  5
635
  8
SLD-0
 10
203.1335529624112
 20
31.32753620211258
 30
0.0
  0
VERTEX
  5
636
  8
SLD-0
 10
203.811372054208
 20
31.32753620211258
 30
0.0
  0
VERTEX
  5
637
  8
SLD-0
 10
204.155661116708
 20
30.86831875419591
 30
0.0
  0
VERTEX
  5
638
  8
SLD-0
 10
204.155661116708
 20
30.40554596773758
 30
0.0
  0
VERTEX
  5
639
  8
SLD-0
 10
203.8328901206143
 20
29.97683828544591
 30
0.0
  0
VERTEX
  5
63A
  8
SLD-0
 10
204.155661116708
 20
29.54635293388342
 30
0.0
  0
SEQEND
  5
D1D
  8
SLD-0
  0
POLYLINE
  5
F1
  8
SLD-0
 66
     1
 10
0.0
 20
0.0
 30
0.0
 70
     1
  0
VERTEX
  5
63B
  8
SLD-0
 10
204.1112917319424
 20
30.42782884534175
 30
0.0
  0
VERTEX
  5
63C
  8
SLD-0
 10
204.1112917319424
 20
30.84566380627925
 30
0.0
  0
VERTEX
  5
63D
  8
SLD-0
 10
203.7938847495205
 20
31.26883177502925
 30
0.0
  0
VERTEX
  5
63E
  8
SLD-0
 10
203.1497070151455
 20
31.26883177502925
 30
0.0
  0
VERTEX
  5
63F
  8
SLD-0
 10
202.8336642905361
 20
30.84566380627925
 30
0.0
  0
VERTEX
  5
640
  8
SLD-0
 10
202.8336642905361
 20
30.42782884534175
 30
0.0
  0
VERTEX
  5
641
  8
SLD-0
 10
203.1497070151455
 20
30.00466087659175
 30
0.0
  0
VERTEX
  5
642
  8
SLD-0
 10
203.7938847495205
 20
30.00466087659175
 30
0.0
  0
SEQEND
  5
D1E
  8
SLD-0
  0
POLYLINE
  5
F2
  8
SLD-0
 66
     1
 10
0.0
 20
0.0
 30
0.0
 70
     1
  0
VERTEX
  5
643
  8
SLD-0
 10
204.1112917319424
 20
29.10449876721675
 30
0.0
  0
VERTEX
  5
644
  8
SLD-0
 10
204.1112917319424
 20
29.52407005627925
 30
0.0
  0
VERTEX
  5
645
  8
SLD-0
 10
203.7938847495205
 20
29.94546035575841
 30
0.0
  0
VERTEX
  5
646
  8
SLD-0
 10
203.1497070151455
 20
29.94546035575841
 30
0.0
  0
VERTEX
  5
647
  8
SLD-0
 10
202.8336642905361
 20
29.52407005627925
 30
0.0
  0
VERTEX
  5
648
  8
SLD-0
 10
202.8336642905361
 20
29.10449876721675
 30
0.0
  0
VERTEX
  5
649
  8
SLD-0
 10
203.1497070151455
 20
28.68306712659175
 30
0.0
  0
VERTEX
  5
64A
  8
SLD-0
 10
203.7938847495205
 20
28.68306712659175
 30
0.0
  0
SEQEND
  5
D1F
  8
SLD-0
  0
POLYLINE
  5
F3
  8
SLD-0
 66
     1
 10
0.0
 20
0.0
 30
0.0
 70
     1
  0
VERTEX
  5
64B
  8
SLD-0
 10
206.1534926596768
 20
31.32753620211258
 30
0.0
  0
VERTEX
  5
64C
  8
SLD-0
 10
205.1448410483486
 20
28.63936953544592
 30
0.0
  0
VERTEX
  5
64D
  8
SLD-0
 10
205.107168929208
 20
28.66810163180008
 30
0.0
  0
VERTEX
  5
64E
  8
SLD-0
 10
206.0822101889736
 20
31.27011335055008
 30
0.0
  0
VERTEX
  5
64F
  8
SLD-0
 10
204.7951569663174
 20
31.27011335055008
 30
0.0
  0
VERTEX
  5
650
  8
SLD-0
 10
204.7951569663174
 20
31.32753620211258
 30
0.0
  0
SEQEND
  5
D20
  8
SLD-0
  0
POLYLINE
  5
F4
  8
SLD-0
 66
     1
 10
0.0
 20
0.0
 30
0.0
 70
     1
  0
VERTEX
  5
651
  8
SLD-0
 10
206.8024142905361
 20
28.65259870211258
 30
0.0
  0
VERTEX
  5
652
  8
SLD-0
 10
206.7580138999112
 20
28.65259870211258
 30
0.0
  0
VERTEX
  5
653
  8
SLD-0
 10
206.7580138999112
 20
29.09445286877925
 30
0.0
  0
VERTEX
  5
654
  8
SLD-0
 10
206.8024142905361
 20
29.09445286877925
 30
0.0
  0
SEQEND
  5
D21
  8
SLD-0
  0
POLYLINE
  5
F5
  8
SLD-0
 66
     1
 10
0.0
 20
0.0
 30
0.0
 70
     1
  0
VERTEX
  5
655
  8
SLD-0
 10
208.785207991708
 20
29.08353880627925
 30
0.0
  0
VERTEX
  5
656
  8
SLD-0
 10
208.440918929208
 20
28.62614036877925
 30
0.0
  0
VERTEX
  5
657
  8
SLD-0
 10
207.7630998374111
 20
28.62614036877925
 30
0.0
  0
VERTEX
  5
658
  8
SLD-0
 10
207.4188107749112
 20
29.08353880627925
 30
0.0
  0
VERTEX
  5
659
  8
SLD-0
 10
207.4188107749112
 20
29.54635293388342
 30
0.0
  0
VERTEX
  5
65A
  8
SLD-0
 10
207.7402485190518
 20
29.97683828544591
 30
0.0
  0
VERTEX
  5
65B
  8
SLD-0
 10
207.4188107749112
 20
30.40554596773758
 30
0.0
  0
VERTEX
  5
65C
  8
SLD-0
 10
207.4188107749112
 20
30.86831875419591
 30
0.0
  0
VERTEX
  5
65D
  8
SLD-0
 10
207.7630998374111
 20
31.32753620211258
 30
0.0
  0
VERTEX
  5
65E
  8
SLD-0
 10
208.440918929208
 20
31.32753620211258
 30
0.0
  0
VERTEX
  5
65F
  8
SLD-0
 10
208.785207991708
 20
30.86831875419591
 30
0.0
  0
VERTEX
  5
660
  8
SLD-0
 10
208.785207991708
 20
30.40554596773758
 30
0.0
  0
VERTEX
  5
661
  8
SLD-0
 10
208.4624369956143
 20
29.97683828544591
 30
0.0
  0
VERTEX
  5
662
  8
SLD-0
 10
208.785207991708
 20
29.54635293388342
 30
0.0
  0
SEQEND
  5
D22
  8
SLD-0
  0
POLYLINE
  5
F6
  8
SLD-0
 66
     1
 10
0.0
 20
0.0
 30
0.0
 70
     1
  0
VERTEX
  5
663
  8
SLD-0
 10
208.7408386069424
 20
30.42782884534175
 30
0.0
  0
VERTEX
  5
664
  8
SLD-0
 10
208.7408386069424
 20
30.84566380627925
 30
0.0
  0
VERTEX
  5
665
  8
SLD-0
 10
208.4234316245205
 20
31.26883177502925
 30
0.0
  0
VERTEX
  5
666
  8
SLD-0
 10
207.7792538901455
 20
31.26883177502925
 30
0.0
  0
VERTEX
  5
667
  8
SLD-0
 10
207.4632111655361
 20
30.84566380627925
 30
0.0
  0
VERTEX
  5
668
  8
SLD-0
 10
207.4632111655361
 20
30.42782884534175
 30
0.0
  0
VERTEX
  5
669
  8
SLD-0
 10
207.7792538901455
 20
30.00466087659175
 30
0.0
  0
VERTEX
  5
66A
  8
SLD-0
 10
208.4234316245205
 20
30.00466087659175
 30
0.0
  0
SEQEND
  5
D23
  8
SLD-0
  0
POLYLINE
  5
F7
  8
SLD-0
 66
     1
 10
0.0
 20
0.0
 30
0.0
 70
     1
  0
VERTEX
  5
66B
  8
SLD-0
 10
208.7408386069424
 20
29.10449876721675
 30
0.0
  0
VERTEX
  5
66C
  8
SLD-0
 10
208.7408386069424
 20
29.52407005627925
 30
0.0
  0
VERTEX
  5
66D
  8
SLD-0
 10
208.4234316245205
 20
29.94546035575841
 30
0.0
  0
VERTEX
  5
66E
  8
SLD-0
 10
207.7792538901455
 20
29.94546035575841
 30
0.0
  0
VERTEX
  5
66F
  8
SLD-0
 10
207.4632111655361
 20
29.52407005627925
 30
0.0
  0
VERTEX
  5
670
  8
SLD-0
 10
207.4632111655361
 20
29.10449876721675
 30
0.0
  0
VERTEX
  5
671
  8
SLD-0
 10
207.7792538901455
 20
28.68306712659175
 30
0.0
  0
VERTEX
  5
672
  8
SLD-0
 10
208.4234316245205
 20
28.68306712659175
 30
0.0
  0
SEQEND
  5
D24
  8
SLD-0
  0
POLYLINE
  5
F8
  8
SLD-0
 66
     1
 10
0.0
 20
0.0
 30
0.0
 70
     1
  0
VERTEX
  5
673
  8
SLD-0
 10
210.4387504721768
 20
29.08353880627925
 30
0.0
  0
VERTEX
  5
674
  8
SLD-0
 10
210.0944614096768
 20
28.62614036877925
 30
0.0
  0
VERTEX
  5
675
  8
SLD-0
 10
209.7474748374111
 20
28.62614036877925
 30
0.0
  0
VERTEX
  5
676
  8
SLD-0
 10
209.4031857749112
 20
29.08353880627925
 30
0.0
  0
VERTEX
  5
677
  8
SLD-0
 10
209.4031857749112
 20
30.86831875419591
 30
0.0
  0
VERTEX
  5
678
  8
SLD-0
 10
209.7474748374111
 20
31.32753620211258
 30
0.0
  0
VERTEX
  5
679
  8
SLD-0
 10
210.0944614096768
 20
31.32753620211258
 30
0.0
  0
VERTEX
  5
67A
  8
SLD-0
 10
210.4387504721768
 20
30.86831875419591
 30
0.0
  0
SEQEND
  5
D25
  8
SLD-0
  0
POLYLINE
  5
F9
  8
SLD-0
 66
     1
 10
0.0
 20
0.0
 30
0.0
 70
     1
  0
VERTEX
  5
67B
  8
SLD-0
 10
210.3943810874111
 20
29.10449876721675
 30
0.0
  0
VERTEX
  5
67C
  8
SLD-0
 10
210.3943810874111
 20
30.84566380627925
 30
0.0
  0
VERTEX
  5
67D
  8
SLD-0
 10
210.0783383628018
 20
31.26883177502925
 30
0.0
  0
VERTEX
  5
67E
  8
SLD-0
 10
209.7636288901455
 20
31.26883177502925
 30
0.0
  0
VERTEX
  5
67F
  8
SLD-0
 10
209.4475861655361
 20
30.84566380627925
 30
0.0
  0
VERTEX
  5
680
  8
SLD-0
 10
209.4475861655361
 20
29.10449876721675
 30
0.0
  0
VERTEX
  5
681
  8
SLD-0
 10
209.7636288901455
 20
28.68306712659175
 30
0.0
  0
VERTEX
  5
682
  8
SLD-0
 10
210.0783383628018
 20
28.68306712659175
 30
0.0
  0
SEQEND
  5
D26
  8
SLD-0
  0
POLYLINE
  5
FA
  8
SLD-0
 66
     1
 10
0.0
 20
0.0
 30
0.0
 70
     1
  0
VERTEX
  5
683
  8
SLD-0
 10
212.424551741708
 20
28.65259870211258
 30
0.0
  0
VERTEX
  5
684
  8
SLD-0
 10
212.3801823569424
 20
28.65259870211258
 30
0.0
  0
VERTEX
  5
685
  8
SLD-0
 10
212.3801823569424
 20
29.96522142346675
 30
0.0
  0
VERTEX
  5
686
  8
SLD-0
 10
212.0708679038174
 20
30.37582168388342
 30
0.0
  0
VERTEX
  5
687
  8
SLD-0
 10
211.7628867026455
 20
29.96522142346675
 30
0.0
  0
VERTEX
  5
688
  8
SLD-0
 10
211.7628867026455
 20
29.53486009534175
 30
0.0
  0
VERTEX
  5
689
  8
SLD-0
 10
211.7184863120205
 20
29.53486009534175
 30
0.0
  0
VERTEX
  5
68A
  8
SLD-0
 10
211.7184863120205
 20
29.96522142346675
 30
0.0
  0
VERTEX
  5
68B
  8
SLD-0
 10
211.410536116708
 20
30.37582168388342
 30
0.0
  0
VERTEX
  5
68C
  8
SLD-0
 10
211.1025549155361
 20
29.96522142346675
 30
0.0
  0
VERTEX
  5
68D
  8
SLD-0
 10
211.1025549155361
 20
28.65259870211258
 30
0.0
  0
VERTEX
  5
68E
  8
SLD-0
 10
211.0581545249111
 20
28.65259870211258
 30
0.0
  0
VERTEX
  5
68F
  8
SLD-0
 10
211.0581545249111
 20
30.41579857190425
 30
0.0
  0
VERTEX
  5
690
  8
SLD-0
 10
211.1025549155361
 20
30.41579857190425
 30
0.0
  0
VERTEX
  5
691
  8
SLD-0
 10
211.1025549155361
 20
30.04629141044591
 30
0.0
  0
VERTEX
  5
692
  8
SLD-0
 10
211.410536116708
 20
30.45705703544591
 30
0.0
  0
VERTEX
  5
693
  8
SLD-0
 10
211.7413686362393
 20
30.01582298596675
 30
0.0
  0
VERTEX
  5
694
  8
SLD-0
 10
212.0708679038174
 20
30.45705703544591
 30
0.0
  0
VERTEX
  5
695
  8
SLD-0
 10
212.424551741708
 20
29.98709088961258
 30
0.0
  0
SEQEND
  5
D27
  8
SLD-0
  0
POLYLINE
  5
FB
  8
SLD-0
 66
     1
 10
0.0
 20
0.0
 30
0.0
 70
     1
  0
VERTEX
  5
696
  8
SLD-0
 10
214.408926741708
 20
28.65259870211258
 30
0.0
  0
VERTEX
  5
697
  8
SLD-0
 10
214.3645573569424
 20
28.65259870211258
 30
0.0
  0
VERTEX
  5
698
  8
SLD-0
 10
214.3645573569424
 20
29.96522142346675
 30
0.0
  0
VERTEX
  5
699
  8
SLD-0
 10
214.0552429038174
 20
30.37582168388342
 30
0.0
  0
VERTEX
  5
69A
  8
SLD-0
 10
213.7472617026455
 20
29.96522142346675
 30
0.0
  0
VERTEX
  5
69B
  8
SLD-0
 10
213.7472617026455
 20
29.53486009534175
 30
0.0
  0
VERTEX
  5
69C
  8
SLD-0
 10
213.7028613120205
 20
29.53486009534175
 30
0.0
  0
VERTEX
  5
69D
  8
SLD-0
 10
213.7028613120205
 20
29.96522142346675
 30
0.0
  0
VERTEX
  5
69E
  8
SLD-0
 10
213.394911116708
 20
30.37582168388342
 30
0.0
  0
VERTEX
  5
69F
  8
SLD-0
 10
213.0869299155361
 20
29.96522142346675
 30
0.0
  0
VERTEX
  5
6A0
  8
SLD-0
 10
213.0869299155361
 20
28.65259870211258
 30
0.0
  0
VERTEX
  5
6A1
  8
SLD-0
 10
213.0425295249111
 20
28.65259870211258
 30
0.0
  0
VERTEX
  5
6A2
  8
SLD-0
 10
213.0425295249111
 20
30.41579857190425
 30
0.0
  0
VERTEX
  5
6A3
  8
SLD-0
 10
213.0869299155361
 20
30.41579857190425
 30
0.0
  0
VERTEX
  5
6A4
  8
SLD-0
 10
213.0869299155361
 20
30.04629141044591
 30
0.0
  0
VERTEX
  5
6A5
  8
SLD-0
 10
213.394911116708
 20
30.45705703544591
 30
0.0
  0
VERTEX
  5
6A6
  8
SLD-0
 10
213.7257436362393
 20
30.01582298596675
 30
0.0
  0
VERTEX
  5
6A7
  8
SLD-0
 10
214.0552429038174
 20
30.45705703544591
 30
0.0
  0
VERTEX
  5
6A8
  8
SLD-0
 10
214.408926741708
 20
29.98709088961258
 30
0.0
  0
SEQEND
  5
D28
  8
SLD-0
  0
POLYLINE
  5
FC
  8
SLD-0
 66
     1
 10
0.0
 20
0.0
 30
0.0
 70
     1
  0
VERTEX
  5
6A9
  8
SLD-0
 10
207.007517162368
 20
33.22871717968339
 30
0.0
  0
VERTEX
  5
6AA
  8
SLD-0
 10
206.663228099868
 20
32.77131874218339
 30
0.0
  0
VERTEX
  5
6AB
  8
SLD-0
 10
205.9854090080711
 20
32.77131874218339
 30
0.0
  0
VERTEX
  5
6AC
  8
SLD-0
 10
205.6465149651024
 20
33.21796848176672
 30
0.0
  0
VERTEX
  5
6AD
  8
SLD-0
 10
205.6787920647118
 20
33.26100461457922
 30
0.0
  0
VERTEX
  5
6AE
  8
SLD-0
 10
206.0015630608055
 20
32.82870025260005
 30
0.0
  0
VERTEX
  5
6AF
  8
SLD-0
 10
206.6457407951805
 20
32.82870025260005
 30
0.0
  0
VERTEX
  5
6B0
  8
SLD-0
 10
206.9631477776024
 20
33.25025591666255
 30
0.0
  0
VERTEX
  5
6B1
  8
SLD-0
 10
206.9631477776024
 20
33.66999257030839
 30
0.0
  0
VERTEX
  5
6B2
  8
SLD-0
 10
206.6457407951805
 20
34.09150689322505
 30
0.0
  0
VERTEX
  5
6B3
  8
SLD-0
 10
206.3243340568993
 20
34.09150689322505
 30
0.0
  0
VERTEX
  5
6B4
  8
SLD-0
 10
206.3243340568993
 20
34.15070741405839
 30
0.0
  0
VERTEX
  5
6B5
  8
SLD-0
 10
206.6457407951805
 20
34.15070741405839
 30
0.0
  0
VERTEX
  5
6B6
  8
SLD-0
 10
206.9631477776024
 20
34.57404074739172
 30
0.0
  0
VERTEX
  5
6B7
  8
SLD-0
 10
206.9631477776024
 20
34.99199973176672
 30
0.0
  0
VERTEX
  5
6B8
  8
SLD-0
 10
206.6457407951805
 20
35.41533306510005
 30
0.0
  0
VERTEX
  5
6B9
  8
SLD-0
 10
206.0015630608055
 20
35.41533306510005
 30
0.0
  0
VERTEX
  5
6BA
  8
SLD-0
 10
205.6787920647118
 20
34.98120969270422
 30
0.0
  0
VERTEX
  5
6BB
  8
SLD-0
 10
205.6465149651024
 20
35.02428716666255
 30
0.0
  0
VERTEX
  5
6BC
  8
SLD-0
 10
205.9854090080711
 20
35.47271457551672
 30
0.0
  0
VERTEX
  5
6BD
  8
SLD-0
 10
206.663228099868
 20
35.47271457551672
 30
0.0
  0
VERTEX
  5
6BE
  8
SLD-0
 10
207.007517162368
 20
35.01349712760005
 30
0.0
  0
VERTEX
  5
6BF
  8
SLD-0
 10
207.007517162368
 20
34.55072434114172
 30
0.0
  0
VERTEX
  5
6C0
  8
SLD-0
 10
206.6847461662743
 20
34.12201665885005
 30
0.0
  0
VERTEX
  5
6C1
  8
SLD-0
 10
207.007517162368
 20
33.69153130728755
 30
0.0
  0
SEQEND
  5
D29
  8
SLD-0
  0
POLYLINE
  5
FD
  8
SLD-0
 66
     1
 10
0.0
 20
0.0
 30
0.0
 70
     1
  0
VERTEX
  5
6C2
  8
SLD-0
 10
207.6698953361961
 20
32.79777707551672
 30
0.0
  0
VERTEX
  5
6C3
  8
SLD-0
 10
207.6254949455711
 20
32.79777707551672
 30
0.0
  0
VERTEX
  5
6C4
  8
SLD-0
 10
207.6254949455711
 20
33.23963124218339
 30
0.0
  0
VERTEX
  5
6C5
  8
SLD-0
 10
207.6698953361961
 20
33.23963124218339
 30
0.0
  0
SEQEND
  5
D2A
  8
SLD-0
  0
POLYLINE
  5
FE
  8
SLD-0
 66
     1
 10
0.0
 20
0.0
 30
0.0
 70
     1
  0
VERTEX
  5
6C6
  8
SLD-0
 10
209.6298377190086
 20
33.65143039582922
 30
0.0
  0
VERTEX
  5
6C7
  8
SLD-0
 10
209.3218565178367
 20
33.65143039582922
 30
0.0
  0
VERTEX
  5
6C8
  8
SLD-0
 10
209.3218565178367
 20
32.79777707551672
 30
0.0
  0
VERTEX
  5
6C9
  8
SLD-0
 10
209.2774871330711
 20
32.79777707551672
 30
0.0
  0
VERTEX
  5
6CA
  8
SLD-0
 10
209.2774871330711
 20
33.65143039582922
 30
0.0
  0
VERTEX
  5
6CB
  8
SLD-0
 10
208.2634405022118
 20
33.65143039582922
 30
0.0
  0
VERTEX
  5
6CC
  8
SLD-0
 10
209.3218565178367
 20
35.53092290885005
 30
0.0
  0
VERTEX
  5
6CD
  8
SLD-0
 10
209.3218565178367
 20
33.70881190624588
 30
0.0
  0
VERTEX
  5
6CE
  8
SLD-0
 10
209.6298377190086
 20
33.70881190624588
 30
0.0
  0
SEQEND
  5
D2B
  8
SLD-0
  0
POLYLINE
  5
FF
  8
SLD-0
 66
     1
 10
0.0
 20
0.0
 30
0.0
 70
     1
  0
VERTEX
  5
6CF
  8
SLD-0
 10
209.2774871330711
 20
33.70872922395422
 30
0.0
  0
VERTEX
  5
6D0
  8
SLD-0
 10
209.2774871330711
 20
35.35485096874589
 30
0.0
  0
VERTEX
  5
6D1
  8
SLD-0
 10
208.3522102776024
 20
33.70872922395422
 30
0.0
  0
SEQEND
  5
D2C
  8
SLD-0
  0
POLYLINE
  5
100
  8
SLD-0
 66
     1
 10
0.0
 20
0.0
 30
0.0
 70
     1
  0
VERTEX
  5
6D2
  8
SLD-0
 10
211.637064037368
 20
33.22871717968339
 30
0.0
  0
VERTEX
  5
6D3
  8
SLD-0
 10
211.292774974868
 20
32.77131874218339
 30
0.0
  0
VERTEX
  5
6D4
  8
SLD-0
 10
210.6149558830711
 20
32.77131874218339
 30
0.0
  0
VERTEX
  5
6D5
  8
SLD-0
 10
210.2706668205711
 20
33.22871717968339
 30
0.0
  0
VERTEX
  5
6D6
  8
SLD-0
 10
210.2706668205711
 20
34.57404074739172
 30
0.0
  0
VERTEX
  5
6D7
  8
SLD-0
 10
210.9458194084617
 20
35.47271457551672
 30
0.0
  0
VERTEX
  5
6D8
  8
SLD-0
 10
211.2833801994774
 20
35.47271457551672
 30
0.0
  0
VERTEX
  5
6D9
  8
SLD-0
 10
211.2833801994774
 20
35.41533306510005
 30
0.0
  0
VERTEX
  5
6DA
  8
SLD-0
 10
210.9619424553368
 20
35.41533306510005
 30
0.0
  0
VERTEX
  5
6DB
  8
SLD-0
 10
210.3150672111961
 20
34.55072434114172
 30
0.0
  0
VERTEX
  5
6DC
  8
SLD-0
 10
210.3150672111961
 20
34.15070741405839
 30
0.0
  0
VERTEX
  5
6DD
  8
SLD-0
 10
211.292774974868
 20
34.15070741405839
 30
0.0
  0
VERTEX
  5
6DE
  8
SLD-0
 10
211.637064037368
 20
33.69153130728755
 30
0.0
  0
SEQEND
  5
D2D
  8
SLD-0
  0
POLYLINE
  5
101
  8
SLD-0
 66
     1
 10
0.0
 20
0.0
 30
0.0
 70
     1
  0
VERTEX
  5
6DF
  8
SLD-0
 10
211.5926946526024
 20
33.24967714062089
 30
0.0
  0
VERTEX
  5
6E0
  8
SLD-0
 10
211.5926946526024
 20
33.66924842968339
 30
0.0
  0
VERTEX
  5
6E1
  8
SLD-0
 10
211.2752876701805
 20
34.09063872916256
 30
0.0
  0
VERTEX
  5
6E2
  8
SLD-0
 10
210.3150672111961
 20
34.09063872916256
 30
0.0
  0
VERTEX
  5
6E3
  8
SLD-0
 10
210.3150672111961
 20
33.24967714062089
 30
0.0
  0
VERTEX
  5
6E4
  8
SLD-0
 10
210.6311099358055
 20
32.82824549999589
 30
0.0
  0
VERTEX
  5
6E5
  8
SLD-0
 10
211.2752876701805
 20
32.82824549999589
 30
0.0
  0
SEQEND
  5
D2E
  8
SLD-0
  0
POLYLINE
  5
102
  8
SLD-0
 66
     1
 10
0.0
 20
0.0
 30
0.0
 70
     1
  0
VERTEX
  5
6E6
  8
SLD-0
 10
212.2994422111961
 20
32.79777707551672
 30
0.0
  0
VERTEX
  5
6E7
  8
SLD-0
 10
212.2550418205711
 20
32.79777707551672
 30
0.0
  0
VERTEX
  5
6E8
  8
SLD-0
 10
212.2550418205711
 20
34.56048085155839
 30
0.0
  0
VERTEX
  5
6E9
  8
SLD-0
 10
212.2994422111961
 20
34.56048085155839
 30
0.0
  0
SEQEND
  5
D2F
  8
SLD-0
  0
POLYLINE
  5
103
  8
SLD-0
 66
     1
 10
0.0
 20
0.0
 30
0.0
 70
     1
  0
VERTEX
  5
6EA
  8
SLD-0
 10
212.2994422111961
 20
35.00250038280839
 30
0.0
  0
VERTEX
  5
6EB
  8
SLD-0
 10
212.2550418205711
 20
35.00250038280839
 30
0.0
  0
VERTEX
  5
6EC
  8
SLD-0
 10
212.2550418205711
 20
35.44361040885006
 30
0.0
  0
VERTEX
  5
6ED
  8
SLD-0
 10
212.2994422111961
 20
35.44361040885006
 30
0.0
  0
SEQEND
  5
D30
  8
SLD-0
  0
POLYLINE
  5
104
  8
SLD-0
 66
     1
 10
0.0
 20
0.0
 30
0.0
 70
     1
  0
VERTEX
  5
6EE
  8
SLD-0
 10
214.282235912368
 20
32.79777707551672
 30
0.0
  0
VERTEX
  5
6EF
  8
SLD-0
 10
214.2378665276024
 20
32.79777707551672
 30
0.0
  0
VERTEX
  5
6F0
  8
SLD-0
 10
214.2378665276024
 20
34.11039979687089
 30
0.0
  0
VERTEX
  5
6F1
  8
SLD-0
 10
213.9204595451805
 20
34.53179009635005
 30
0.0
  0
VERTEX
  5
6F2
  8
SLD-0
 10
213.6071143303367
 20
34.53179009635005
 30
0.0
  0
VERTEX
  5
6F3
  8
SLD-0
 10
212.9602390861961
 20
33.66924842968339
 30
0.0
  0
VERTEX
  5
6F4
  8
SLD-0
 10
212.9602390861961
 20
32.79777707551672
 30
0.0
  0
VERTEX
  5
6F5
  8
SLD-0
 10
212.9158386955711
 20
32.79777707551672
 30
0.0
  0
VERTEX
  5
6F6
  8
SLD-0
 10
212.9158386955711
 20
34.56114230989172
 30
0.0
  0
VERTEX
  5
6F7
  8
SLD-0
 10
212.9602390861961
 20
34.56114230989172
 30
0.0
  0
VERTEX
  5
6F8
  8
SLD-0
 10
212.9602390861961
 20
33.75031841666255
 30
0.0
  0
VERTEX
  5
6F9
  8
SLD-0
 10
213.5909912834617
 20
34.59165207551672
 30
0.0
  0
VERTEX
  5
6FA
  8
SLD-0
 10
213.937946849868
 20
34.59165207551672
 30
0.0
  0
VERTEX
  5
6FB
  8
SLD-0
 10
214.282235912368
 20
34.13243462760006
 30
0.0
  0
SEQEND
  5
D31
  8
SLD-0
  0
POLYLINE
  5
105
  8
SLD-0
 66
     1
 10
0.0
 20
0.0
 30
0.0
 70
     1
  0
VERTEX
  5
6FC
  8
SLD-0
 10
142.4956056203157
 20
120.1368246266356
 30
0.0
  0
VERTEX
  5
6FD
  8
SLD-0
 10
141.9273424225394
 20
120.2062884822557
 30
0.0
  0
VERTEX
  5
6FE
  8
SLD-0
 10
141.588432876641
 20
120.7932970349219
 30
0.0
  0
VERTEX
  5
6FF
  8
SLD-0
 10
141.705569536889
 20
121.0783185910684
 30
0.0
  0
VERTEX
  5
700
  8
SLD-0
 10
141.4488966212762
 20
121.06367167392
 30
0.0
  0
VERTEX
  5
701
  8
SLD-0
 10
141.45490748457
 20
121.1106420637143
 30
0.0
  0
VERTEX
  5
702
  8
SLD-0
 10
141.7296254354939
 20
121.1263628389212
 30
0.0
  0
VERTEX
  5
703
  8
SLD-0
 10
141.8124070119173
 20
121.320159328042
 30
0.0
  0
VERTEX
  5
704
  8
SLD-0
 10
143.3580717869782
 20
122.2125493020004
 30
0.0
  0
VERTEX
  5
705
  8
SLD-0
 10
143.927910293985
 20
122.1439949515886
 30
0.0
  0
VERTEX
  5
706
  8
SLD-0
 10
144.2668198398835
 20
121.5569863989224
 30
0.0
  0
VERTEX
  5
707
  8
SLD-0
 10
144.1474770469108
 20
121.2722306382015
 30
0.0
  0
VERTEX
  5
708
  8
SLD-0
 10
144.4057049722014
 20
121.2877395381235
 30
0.0
  0
VERTEX
  5
709
  8
SLD-0
 10
144.4003607348841
 20
121.2396145182681
 30
0.0
  0
VERTEX
  5
70A
  8
SLD-0
 10
144.1249761579836
 20
121.2250483731223
 30
0.0
  0
VERTEX
  5
70B
  8
SLD-0
 10
144.0412703953766
 20
121.0292146005939
 30
0.0
  0
SEQEND
  5
D32
  8
SLD-0
  0
POLYLINE
  5
106
  8
SLD-0
 66
     1
 10
0.0
 20
0.0
 30
0.0
 70
     1
  0
VERTEX
  5
70C
  8
SLD-0
 10
142.4915727865671
 20
120.1857296214616
 30
0.0
  0
VERTEX
  5
70D
  8
SLD-0
 10
143.9994659425765
 20
121.0563121409929
 30
0.0
  0
VERTEX
  5
70E
  8
SLD-0
 10
144.0667905749031
 20
121.2194166499106
 30
0.0
  0
VERTEX
  5
70F
  8
SLD-0
 10
141.7629180416805
 20
121.0819275201565
 30
0.0
  0
VERTEX
  5
710
  8
SLD-0
 10
141.6458099214288
 20
120.8077705937861
 30
0.0
  0
VERTEX
  5
711
  8
SLD-0
 10
141.9678987886163
 20
120.2498963112651
 30
0.0
  0
SEQEND
  5
D33
  8
SLD-0
  0
POLYLINE
  5
107
  8
SLD-0
 66
     1
 10
0.0
 20
0.0
 30
0.0
 70
     1
  0
VERTEX
  5
712
  8
SLD-0
 10
144.0885890353713
 20
121.267732874478
 30
0.0
  0
VERTEX
  5
713
  8
SLD-0
 10
144.2072366623709
 20
121.5427786354838
 30
0.0
  0
VERTEX
  5
714
  8
SLD-0
 10
143.8851477951835
 20
122.1006529180049
 30
0.0
  0
VERTEX
  5
715
  8
SLD-0
 10
143.3606522218734
 20
122.1627699618228
 30
0.0
  0
VERTEX
  5
716
  8
SLD-0
 10
141.8527590658639
 20
121.2921874422916
 30
0.0
  0
VERTEX
  5
717
  8
SLD-0
 10
141.7847165021486
 20
121.1302437447239
 30
0.0
  0
SEQEND
  5
D34
  8
SLD-0
  0
POLYLINE
  5
108
  8
SLD-0
 66
     1
 10
0.0
 20
0.0
 30
0.0
 70
     1
  0
VERTEX
  5
718
  8
SLD-0
 10
144.3871296383476
 20
116.8606089236675
 30
0.0
  0
VERTEX
  5
719
  8
SLD-0
 10
143.8188664405713
 20
116.9300727792877
 30
0.0
  0
VERTEX
  5
71A
  8
SLD-0
 10
143.4799568946729
 20
117.5170813319539
 30
0.0
  0
VERTEX
  5
71B
  8
SLD-0
 10
143.7039310299492
 20
118.043943625074
 30
0.0
  0
VERTEX
  5
71C
  8
SLD-0
 10
144.8690154158945
 20
118.7166054089281
 30
0.0
  0
VERTEX
  5
71D
  8
SLD-0
 10
145.9848660747123
 20
118.5812430304466
 30
0.0
  0
VERTEX
  5
71E
  8
SLD-0
 10
146.1536464702201
 20
118.2889068101055
 30
0.0
  0
VERTEX
  5
71F
  8
SLD-0
 10
146.1039526244917
 20
118.2602160548971
 30
0.0
  0
VERTEX
  5
720
  8
SLD-0
 10
145.9432337524214
 20
118.5385893070581
 30
0.0
  0
VERTEX
  5
721
  8
SLD-0
 10
144.8710230110696
 20
118.6664953395839
 30
0.0
  0
VERTEX
  5
722
  8
SLD-0
 10
144.5245981902716
 20
118.4664868760423
 30
0.0
  0
VERTEX
  5
723
  8
SLD-0
 10
145.0134520721076
 20
117.6197671152252
 30
0.0
  0
VERTEX
  5
724
  8
SLD-0
 10
144.7879384300832
 20
117.0920159874696
 30
0.0
  0
SEQEND
  5
D35
  8
SLD-0
  0
POLYLINE
  5
109
  8
SLD-0
 66
     1
 10
0.0
 20
0.0
 30
0.0
 70
     1
  0
VERTEX
  5
725
  8
SLD-0
 10
144.383096804599
 20
116.9095139184936
 30
0.0
  0
VERTEX
  5
726
  8
SLD-0
 10
144.7464561996257
 20
117.1192995630249
 30
0.0
  0
VERTEX
  5
727
  8
SLD-0
 10
144.9526874126721
 20
117.6048772228803
 30
0.0
  0
VERTEX
  5
728
  8
SLD-0
 10
144.4725771831799
 20
118.4364525335944
 30
0.0
  0
VERTEX
  5
729
  8
SLD-0
 10
143.7442830838959
 20
118.0159717393235
 30
0.0
  0
VERTEX
  5
72A
  8
SLD-0
 10
143.5373339394608
 20
117.5315548908181
 30
0.0
  0
VERTEX
  5
72B
  8
SLD-0
 10
143.8594228066483
 20
116.973680608297
 30
0.0
  0
SEQEND
  5
D36
  8
SLD-0
  0
POLYLINE
  5
10A
  8
SLD-0
 66
     1
 10
0.0
 20
0.0
 30
0.0
 70
     1
  0
VERTEX
  5
72C
  8
SLD-0
 10
144.3451136475439
 20
116.0715025461367
 30
0.0
  0
VERTEX
  5
72D
  8
SLD-0
 10
144.3229134522313
 20
116.1099544123559
 30
0.0
  0
VERTEX
  5
72E
  8
SLD-0
 10
144.7055703853327
 20
116.3308814956892
 30
0.0
  0
VERTEX
  5
72F
  8
SLD-0
 10
144.7277705806452
 20
116.29242962947
 30
0.0
  0
SEQEND
  5
D37
  8
SLD-0
  0
POLYLINE
  5
10B
  8
SLD-0
 66
     1
 10
0.0
 20
0.0
 30
0.0
 70
     1
  0
VERTEX
  5
730
  8
SLD-0
 10
145.544299316082
 20
114.8563322488535
 30
0.0
  0
VERTEX
  5
731
  8
SLD-0
 10
144.9760361183057
 20
114.9257961044736
 30
0.0
  0
VERTEX
  5
732
  8
SLD-0
 10
144.8025428321729
 20
115.2262952908277
 30
0.0
  0
VERTEX
  5
733
  8
SLD-0
 10
145.0265169674492
 20
115.7531575839479
 30
0.0
  0
VERTEX
  5
734
  8
SLD-0
 10
146.5721817425101
 20
116.6455475579062
 30
0.0
  0
VERTEX
  5
735
  8
SLD-0
 10
147.142020249517
 20
116.5769932074944
 30
0.0
  0
VERTEX
  5
736
  8
SLD-0
 10
147.3155135356498
 20
116.2764940211403
 30
0.0
  0
VERTEX
  5
737
  8
SLD-0
 10
147.0899640911429
 20
115.7487222228118
 30
0.0
  0
SEQEND
  5
D38
  8
SLD-0
  0
POLYLINE
  5
10C
  8
SLD-0
 66
     1
 10
0.0
 20
0.0
 30
0.0
 70
     1
  0
VERTEX
  5
738
  8
SLD-0
 10
145.5402664823334
 20
114.9052372436796
 30
0.0
  0
VERTEX
  5
739
  8
SLD-0
 10
147.0481596383428
 20
115.7758197632108
 30
0.0
  0
VERTEX
  5
73A
  8
SLD-0
 10
147.2566124870435
 20
116.2611047757788
 30
0.0
  0
VERTEX
  5
73B
  8
SLD-0
 10
147.0992577507154
 20
116.5336511739107
 30
0.0
  0
VERTEX
  5
73C
  8
SLD-0
 10
146.5747621774053
 20
116.5957682177287
 30
0.0
  0
VERTEX
  5
73D
  8
SLD-0
 10
145.0668690213959
 20
115.7251856981974
 30
0.0
  0
VERTEX
  5
73E
  8
SLD-0
 10
144.8599198769608
 20
115.240768849692
 30
0.0
  0
VERTEX
  5
73F
  8
SLD-0
 10
145.0172746132889
 20
114.96822245156
 30
0.0
  0
SEQEND
  5
D39
  8
SLD-0
  0
POLYLINE
  5
10D
  8
SLD-0
 66
     1
 10
0.0
 20
0.0
 30
0.0
 70
     1
  0
VERTEX
  5
740
  8
SLD-0
 10
146.371783691082
 20
113.4230872688841
 30
0.0
  0
VERTEX
  5
741
  8
SLD-0
 10
145.8035204933057
 20
113.4925511245043
 30
0.0
  0
VERTEX
  5
742
  8
SLD-0
 10
145.6300272071729
 20
113.7930503108584
 30
0.0
  0
VERTEX
  5
743
  8
SLD-0
 10
145.8540013424492
 20
114.3199126039785
 30
0.0
  0
VERTEX
  5
744
  8
SLD-0
 10
147.3996661175101
 20
115.2123025779368
 30
0.0
  0
VERTEX
  5
745
  8
SLD-0
 10
147.969504624517
 20
115.143748227525
 30
0.0
  0
VERTEX
  5
746
  8
SLD-0
 10
148.1429979106498
 20
114.8432490411709
 30
0.0
  0
VERTEX
  5
747
  8
SLD-0
 10
147.9174484661429
 20
114.3154772428425
 30
0.0
  0
SEQEND
  5
D3A
  8
SLD-0
  0
POLYLINE
  5
10E
  8
SLD-0
 66
     1
 10
0.0
 20
0.0
 30
0.0
 70
     1
  0
VERTEX
  5
748
  8
SLD-0
 10
146.3677508573334
 20
113.4719922637102
 30
0.0
  0
VERTEX
  5
749
  8
SLD-0
 10
147.8756440133428
 20
114.3425747832414
 30
0.0
  0
VERTEX
  5
74A
  8
SLD-0
 10
148.0840968620435
 20
114.8278597958094
 30
0.0
  0
VERTEX
  5
74B
  8
SLD-0
 10
147.9267421257154
 20
115.1004061939413
 30
0.0
  0
VERTEX
  5
74C
  8
SLD-0
 10
147.4022465524054
 20
115.1625232377593
 30
0.0
  0
VERTEX
  5
74D
  8
SLD-0
 10
145.8943533963959
 20
114.291940718228
 30
0.0
  0
VERTEX
  5
74E
  8
SLD-0
 10
145.6874042519608
 20
113.8075238697226
 30
0.0
  0
VERTEX
  5
74F
  8
SLD-0
 10
145.8447589882889
 20
113.5349774715907
 30
0.0
  0
SEQEND
  5
D3B
  8
SLD-0
  0
POLYLINE
  5
10F
  8
SLD-0
 66
     1
 10
0.0
 20
0.0
 30
0.0
 70
     1
  0
VERTEX
  5
750
  8
SLD-0
 10
146.9914792481298
 20
111.4878628705194
 30
0.0
  0
VERTEX
  5
751
  8
SLD-0
 10
146.969294555747
 20
111.5262878848767
 30
0.0
  0
VERTEX
  5
752
  8
SLD-0
 10
148.1060591780244
 20
112.1825992455537
 30
0.0
  0
VERTEX
  5
753
  8
SLD-0
 10
148.3069922077832
 20
112.655773549926
 30
0.0
  0
VERTEX
  5
754
  8
SLD-0
 10
147.7974113508759
 20
112.7171929638206
 30
0.0
  0
VERTEX
  5
755
  8
SLD-0
 10
147.4247075079133
 20
112.5020122997581
 30
0.0
  0
VERTEX
  5
756
  8
SLD-0
 10
147.4025073126008
 20
112.5404641659773
 30
0.0
  0
VERTEX
  5
757
  8
SLD-0
 10
147.7752111555634
 20
112.7556448300398
 30
0.0
  0
VERTEX
  5
758
  8
SLD-0
 10
147.9768263142285
 20
113.2276376524891
 30
0.0
  0
VERTEX
  5
759
  8
SLD-0
 10
147.4672454573212
 20
113.2890570663837
 30
0.0
  0
VERTEX
  5
75A
  8
SLD-0
 10
146.3304808350439
 20
112.6327457057066
 30
0.0
  0
VERTEX
  5
75B
  8
SLD-0
 10
146.3082806397314
 20
112.6711975719258
 30
0.0
  0
VERTEX
  5
75C
  8
SLD-0
 10
147.8352565189204
 20
113.5527975068216
 30
0.0
  0
VERTEX
  5
75D
  8
SLD-0
 10
147.8574567142329
 20
113.5143456406024
 30
0.0
  0
VERTEX
  5
75E
  8
SLD-0
 10
147.5374541255297
 20
113.3295920598733
 30
0.0
  0
VERTEX
  5
75F
  8
SLD-0
 10
148.047178192367
 20
113.2682553282704
 30
0.0
  0
VERTEX
  5
760
  8
SLD-0
 10
147.830474556269
 20
112.7611289372187
 30
0.0
  0
VERTEX
  5
761
  8
SLD-0
 10
148.3773440859217
 20
112.6963912257073
 30
0.0
  0
VERTEX
  5
762
  8
SLD-0
 10
148.1471833836567
 20
112.1551089642693
 30
0.0
  0
SEQEND
  5
D3C
  8
SLD-0
  0
POLYLINE
  5
110
  8
SLD-0
 66
     1
 10
0.0
 20
0.0
 30
0.0
 70
     1
  0
VERTEX
  5
763
  8
SLD-0
 10
147.9836667481298
 20
109.7693437098846
 30
0.0
  0
VERTEX
  5
764
  8
SLD-0
 10
147.961482055747
 20
109.8077687242419
 30
0.0
  0
VERTEX
  5
765
  8
SLD-0
 10
149.0982466780244
 20
110.464080084919
 30
0.0
  0
VERTEX
  5
766
  8
SLD-0
 10
149.2991797077832
 20
110.9372543892913
 30
0.0
  0
VERTEX
  5
767
  8
SLD-0
 10
148.7895988508759
 20
110.9986738031858
 30
0.0
  0
VERTEX
  5
768
  8
SLD-0
 10
148.4168950079133
 20
110.7834931391233
 30
0.0
  0
VERTEX
  5
769
  8
SLD-0
 10
148.3946948126008
 20
110.8219450053425
 30
0.0
  0
VERTEX
  5
76A
  8
SLD-0
 10
148.7673986555634
 20
111.037125669405
 30
0.0
  0
VERTEX
  5
76B
  8
SLD-0
 10
148.9690138142285
 20
111.5091184918544
 30
0.0
  0
VERTEX
  5
76C
  8
SLD-0
 10
148.4594329573212
 20
111.5705379057489
 30
0.0
  0
VERTEX
  5
76D
  8
SLD-0
 10
147.3226683350439
 20
110.9142265450719
 30
0.0
  0
VERTEX
  5
76E
  8
SLD-0
 10
147.3004681397314
 20
110.9526784112911
 30
0.0
  0
VERTEX
  5
76F
  8
SLD-0
 10
148.8274440189204
 20
111.8342783461869
 30
0.0
  0
VERTEX
  5
770
  8
SLD-0
 10
148.8496442142329
 20
111.7958264799677
 30
0.0
  0
VERTEX
  5
771
  8
SLD-0
 10
148.5296416255297
 20
111.6110728992385
 30
0.0
  0
VERTEX
  5
772
  8
SLD-0
 10
149.039365692367
 20
111.5497361676356
 30
0.0
  0
VERTEX
  5
773
  8
SLD-0
 10
148.822662056269
 20
111.042609776584
 30
0.0
  0
VERTEX
  5
774
  8
SLD-0
 10
149.3695315859217
 20
110.9778720650725
 30
0.0
  0
VERTEX
  5
775
  8
SLD-0
 10
149.1393708836567
 20
110.4365898036346
 30
0.0
  0
SEQEND
  5
D3D
  8
SLD-0
  0
POLYLINE
  5
111
  8
SLD-0
 66
     1
 10
0.0
 20
0.0
 30
0.0
 70
     1
  0
VERTEX
  5
776
  8
SLD-0
 10
147.8055250884995
 20
119.2301310704504
 30
0.0
  0
VERTEX
  5
777
  8
SLD-0
 10
147.2372618907232
 20
119.2995949260705
 30
0.0
  0
VERTEX
  5
778
  8
SLD-0
 10
147.0637686045904
 20
119.6000941124246
 30
0.0
  0
VERTEX
  5
779
  8
SLD-0
 10
147.2877427398667
 20
120.1269564055447
 30
0.0
  0
VERTEX
  5
77A
  8
SLD-0
 10
148.8334075149276
 20
121.0193463795031
 30
0.0
  0
VERTEX
  5
77B
  8
SLD-0
 10
149.4032460219345
 20
120.9507920290913
 30
0.0
  0
VERTEX
  5
77C
  8
SLD-0
 10
149.5767393080673
 20
120.6502928427371
 30
0.0
  0
VERTEX
  5
77D
  8
SLD-0
 10
149.3511898635604
 20
120.1225210444087
 30
0.0
  0
SEQEND
  5
D3E
  8
SLD-0
  0
POLYLINE
  5
112
  8
SLD-0
 66
     1
 10
0.0
 20
0.0
 30
0.0
 70
     1
  0
VERTEX
  5
77E
  8
SLD-0
 10
147.8014922547509
 20
119.2790360652764
 30
0.0
  0
VERTEX
  5
77F
  8
SLD-0
 10
149.3093854107604
 20
120.1496185848077
 30
0.0
  0
VERTEX
  5
780
  8
SLD-0
 10
149.5178382594611
 20
120.6349035973756
 30
0.0
  0
VERTEX
  5
781
  8
SLD-0
 10
149.3604835231329
 20
120.9074499955075
 30
0.0
  0
VERTEX
  5
782
  8
SLD-0
 10
148.8359879498229
 20
120.9695670393255
 30
0.0
  0
VERTEX
  5
783
  8
SLD-0
 10
147.3280947938134
 20
120.0989845197943
 30
0.0
  0
VERTEX
  5
784
  8
SLD-0
 10
147.1211456493783
 20
119.6145676712888
 30
0.0
  0
VERTEX
  5
785
  8
SLD-0
 10
147.2785003857065
 20
119.3420212731569
 30
0.0
  0
SEQEND
  5
D3F
  8
SLD-0
  0
POLYLINE
  5
113
  8
SLD-0
 66
     1
 10
0.0
 20
0.0
 30
0.0
 70
     1
  0
VERTEX
  5
786
  8
SLD-0
 10
147.7642222324614
 20
118.4397895072728
 30
0.0
  0
VERTEX
  5
787
  8
SLD-0
 10
147.7420220371489
 20
118.478241373492
 30
0.0
  0
VERTEX
  5
788
  8
SLD-0
 10
148.1246789702502
 20
118.6991684568253
 30
0.0
  0
VERTEX
  5
789
  8
SLD-0
 10
148.1468791655627
 20
118.6607165906062
 30
0.0
  0
SEQEND
  5
D40
  8
SLD-0
  0
POLYLINE
  5
114
  8
SLD-0
 66
     1
 10
0.0
 20
0.0
 30
0.0
 70
     1
  0
VERTEX
  5
78A
  8
SLD-0
 10
150.273715946573
 20
117.5991134244067
 30
0.0
  0
VERTEX
  5
78B
  8
SLD-0
 10
149.7038774395662
 20
117.6676677748185
 30
0.0
  0
VERTEX
  5
78C
  8
SLD-0
 10
149.3730449200349
 20
118.2406865074426
 30
0.0
  0
VERTEX
  5
78D
  8
SLD-0
 10
148.8499814460254
 20
118.3036303741773
 30
0.0
  0
VERTEX
  5
78E
  8
SLD-0
 10
148.1214009268813
 20
117.8829842153231
 30
0.0
  0
VERTEX
  5
78F
  8
SLD-0
 10
148.7709736807875
 20
116.757891202345
 30
0.0
  0
VERTEX
  5
790
  8
SLD-0
 10
148.7212798350592
 20
116.7292004471367
 30
0.0
  0
VERTEX
  5
791
  8
SLD-0
 10
148.0495068858404
 20
117.892745326334
 30
0.0
  0
VERTEX
  5
792
  8
SLD-0
 10
148.8464343441023
 20
118.3528516088861
 30
0.0
  0
VERTEX
  5
793
  8
SLD-0
 10
149.4162370486267
 20
118.2842765879014
 30
0.0
  0
VERTEX
  5
794
  8
SLD-0
 10
149.7464029421814
 20
117.7124124853383
 30
0.0
  0
VERTEX
  5
795
  8
SLD-0
 10
150.2717238543277
 20
117.649196641889
 30
0.0
  0
VERTEX
  5
796
  8
SLD-0
 10
150.6336869525364
 20
117.8581761340765
 30
0.0
  0
VERTEX
  5
797
  8
SLD-0
 10
150.8416008822609
 20
118.3447253108591
 30
0.0
  0
VERTEX
  5
798
  8
SLD-0
 10
150.5195120150734
 20
118.9025995933801
 30
0.0
  0
VERTEX
  5
799
  8
SLD-0
 10
149.9821646481551
 20
118.9650657894042
 30
0.0
  0
VERTEX
  5
79A
  8
SLD-0
 10
150.0033322851292
 20
119.0145573146056
 30
0.0
  0
VERTEX
  5
79B
  8
SLD-0
 10
150.5611288344345
 20
118.9452801686305
 30
0.0
  0
VERTEX
  5
79C
  8
SLD-0
 10
150.900038380333
 20
118.3582716159643
 30
0.0
  0
VERTEX
  5
79D
  8
SLD-0
 10
150.6744889358261
 20
117.8304998176359
 30
0.0
  0
SEQEND
  5
D41
  8
SLD-0
  0
POLYLINE
  5
115
  8
SLD-0
 66
     1
 10
0.0
 20
0.0
 30
0.0
 70
     1
  0
VERTEX
  5
79E
  8
SLD-0
 10
150.4756663852832
 20
115.4507371133249
 30
0.0
  0
VERTEX
  5
79F
  8
SLD-0
 10
150.3216757846973
 20
115.7174566574278
 30
0.0
  0
VERTEX
  5
7A0
  8
SLD-0
 10
149.5823903232817
 20
115.2906299972715
 30
0.0
  0
VERTEX
  5
7A1
  8
SLD-0
 10
149.5602056308989
 20
115.3290550116289
 30
0.0
  0
VERTEX
  5
7A2
  8
SLD-0
 10
150.2994910923145
 20
115.7558816717851
 30
0.0
  0
VERTEX
  5
7A3
  8
SLD-0
 10
149.7924677768848
 20
116.6340718147313
 30
0.0
  0
VERTEX
  5
7A4
  8
SLD-0
 10
151.949364047196
 20
116.6572029139382
 30
0.0
  0
VERTEX
  5
7A5
  8
SLD-0
 10
150.3713696304256
 20
115.7461474126361
 30
0.0
  0
VERTEX
  5
7A6
  8
SLD-0
 10
150.5253602310116
 20
115.4794278685332
 30
0.0
  0
SEQEND
  5
D42
  8
SLD-0
  0
POLYLINE
  5
116
  8
SLD-0
 66
     1
 10
0.0
 20
0.0
 30
0.0
 70
     1
  0
VERTEX
  5
7A7
  8
SLD-0
 10
150.3491133330778
 20
115.7845310858476
 30
0.0
  0
VERTEX
  5
7A8
  8
SLD-0
 10
151.7746965817893
 20
116.6075919582434
 30
0.0
  0
VERTEX
  5
7A9
  8
SLD-0
 10
149.8864749053434
 20
116.5858443482173
 30
0.0
  0
SEQEND
  5
D43
  8
SLD-0
  0
POLYLINE
  5
117
  8
SLD-0
 66
     1
 10
0.0
 20
0.0
 30
0.0
 70
     1
  0
VERTEX
  5
7AA
  8
SLD-0
 10
150.0789956699614
 20
114.430484305512
 30
0.0
  0
VERTEX
  5
7AB
  8
SLD-0
 10
150.0567954746489
 20
114.4689361717312
 30
0.0
  0
VERTEX
  5
7AC
  8
SLD-0
 10
151.5833417240478
 20
115.350288059752
 30
0.0
  0
VERTEX
  5
7AD
  8
SLD-0
 10
151.6055419193602
 20
115.3118361935328
 30
0.0
  0
SEQEND
  5
D44
  8
SLD-0
  0
POLYLINE
  5
118
  8
SLD-0
 66
     1
 10
0.0
 20
0.0
 30
0.0
 70
     1
  0
VERTEX
  5
7AE
  8
SLD-0
 10
151.9883420623916
 20
115.5328459591578
 30
0.0
  0
VERTEX
  5
7AF
  8
SLD-0
 10
151.9661418670791
 20
115.571297825377
 30
0.0
  0
VERTEX
  5
7B0
  8
SLD-0
 10
152.3481543554952
 20
115.7918528383978
 30
0.0
  0
VERTEX
  5
7B1
  8
SLD-0
 10
152.3703545508077
 20
115.7534009721786
 30
0.0
  0
SEQEND
  5
D45
  8
SLD-0
  0
POLYLINE
  5
119
  8
SLD-0
 66
     1
 10
0.0
 20
0.0
 30
0.0
 70
     1
  0
VERTEX
  5
7B2
  8
SLD-0
 10
151.0703925205474
 20
112.7133345898334
 30
0.0
  0
VERTEX
  5
7B3
  8
SLD-0
 10
151.0482078281645
 20
112.7517596041907
 30
0.0
  0
VERTEX
  5
7B4
  8
SLD-0
 10
152.1849724504419
 20
113.4080709648677
 30
0.0
  0
VERTEX
  5
7B5
  8
SLD-0
 10
152.3912036634883
 20
113.8936486247232
 30
0.0
  0
VERTEX
  5
7B6
  8
SLD-0
 10
152.2345310560664
 20
114.1650135409322
 30
0.0
  0
VERTEX
  5
7B7
  8
SLD-0
 10
151.1641104388402
 20
114.2939531021039
 30
0.0
  0
VERTEX
  5
7B8
  8
SLD-0
 10
150.4093941074614
 20
113.8582174250206
 30
0.0
  0
VERTEX
  5
7B9
  8
SLD-0
 10
150.3871939121489
 20
113.8966692912398
 30
0.0
  0
VERTEX
  5
7BA
  8
SLD-0
 10
151.914313001268
 20
114.7783519084273
 30
0.0
  0
VERTEX
  5
7BB
  8
SLD-0
 10
151.9365131965804
 20
114.7399000422081
 30
0.0
  0
VERTEX
  5
7BC
  8
SLD-0
 10
151.2343191070486
 20
114.3344880955935
 30
0.0
  0
VERTEX
  5
7BD
  8
SLD-0
 10
152.278311527308
 20
114.2089074986957
 30
0.0
  0
VERTEX
  5
7BE
  8
SLD-0
 10
152.4517893105111
 20
113.9084351642035
 30
0.0
  0
VERTEX
  5
7BF
  8
SLD-0
 10
152.2262398660043
 20
113.380663365875
 30
0.0
  0
SEQEND
  5
D46
  8
SLD-0
  0
POLYLINE
  5
11A
  8
SLD-0
 66
     1
 10
0.0
 20
0.0
 30
0.0
 70
     1
  0
VERTEX
  5
7C0
  8
SLD-0
 10
37.27837706376744
 20
28.65631381804695
 30
0.0
  0
VERTEX
  5
7C1
  8
SLD-0
 10
36.62775206376744
 20
27.79193881804695
 30
0.0
  0
VERTEX
  5
7C2
  8
SLD-0
 10
34.73687315751744
 20
27.79193881804695
 30
0.0
  0
VERTEX
  5
7C3
  8
SLD-0
 10
34.73687315751744
 20
27.90037631804695
 30
0.0
  0
VERTEX
  5
7C4
  8
SLD-0
 10
35.32146300126744
 20
27.90037631804695
 30
0.0
  0
VERTEX
  5
7C5
  8
SLD-0
 10
35.32146300126744
 20
32.78850131804695
 30
0.0
  0
VERTEX
  5
7C6
  8
SLD-0
 10
34.73687315751744
 20
32.78850131804695
 30
0.0
  0
VERTEX
  5
7C7
  8
SLD-0
 10
34.73687315751744
 20
32.89693881804695
 30
0.0
  0
VERTEX
  5
7C8
  8
SLD-0
 10
36.62775206376744
 20
32.89693881804695
 30
0.0
  0
VERTEX
  5
7C9
  8
SLD-0
 10
37.27837706376744
 20
32.02912631804695
 30
0.0
  0
VERTEX
  5
7CA
  8
SLD-0
 10
37.27837706376744
 20
31.15459506804695
 30
0.0
  0
VERTEX
  5
7CB
  8
SLD-0
 10
36.66841612626744
 20
30.34443881804695
 30
0.0
  0
VERTEX
  5
7CC
  8
SLD-0
 10
37.27837706376744
 20
29.53092319304695
 30
0.0
  0
SEQEND
  5
D47
  8
SLD-0
  0
POLYLINE
  5
11B
  8
SLD-0
 66
     1
 10
0.0
 20
0.0
 30
0.0
 70
     1
  0
VERTEX
  5
7CD
  8
SLD-0
 10
37.19452940751744
 20
31.19670444304695
 30
0.0
  0
VERTEX
  5
7CE
  8
SLD-0
 10
37.19452940751744
 20
31.98631381804695
 30
0.0
  0
VERTEX
  5
7CF
  8
SLD-0
 10
36.59470518876744
 20
32.78600131804695
 30
0.0
  0
VERTEX
  5
7D0
  8
SLD-0
 10
35.40279112626744
 20
32.78600131804695
 30
0.0
  0
VERTEX
  5
7D1
  8
SLD-0
 10
35.40279112626744
 20
30.39701694304695
 30
0.0
  0
VERTEX
  5
7D2
  8
SLD-0
 10
36.59470518876744
 20
30.39701694304695
 30
0.0
  0
SEQEND
  5
D48
  8
SLD-0
  0
POLYLINE
  5
11C
  8
SLD-0
 66
     1
 10
0.0
 20
0.0
 30
0.0
 70
     1
  0
VERTEX
  5
7D3
  8
SLD-0
 10
37.19452940751744
 20
28.69592319304695
 30
0.0
  0
VERTEX
  5
7D4
  8
SLD-0
 10
37.19452940751744
 20
29.48881381804695
 30
0.0
  0
VERTEX
  5
7D5
  8
SLD-0
 10
36.59470518876744
 20
30.28514194304695
 30
0.0
  0
VERTEX
  5
7D6
  8
SLD-0
 10
35.40279112626744
 20
30.28514194304695
 30
0.0
  0
VERTEX
  5
7D7
  8
SLD-0
 10
35.40279112626744
 20
27.89951694304695
 30
0.0
  0
VERTEX
  5
7D8
  8
SLD-0
 10
36.59470518876744
 20
27.89951694304695
 30
0.0
  0
SEQEND
  5
D49
  8
SLD-0
  0
POLYLINE
  5
11D
  8
SLD-0
 66
     1
 10
0.0
 20
0.0
 30
0.0
 70
     1
  0
VERTEX
  5
7D9
  8
SLD-0
 10
41.01566222001744
 20
30.38443881804695
 30
0.0
  0
VERTEX
  5
7DA
  8
SLD-0
 10
40.95466612626744
 20
30.29967319304695
 30
0.0
  0
VERTEX
  5
7DB
  8
SLD-0
 10
40.34470518876744
 20
31.12006381804695
 30
0.0
  0
VERTEX
  5
7DC
  8
SLD-0
 10
39.75255675126744
 20
31.12006381804695
 30
0.0
  0
VERTEX
  5
7DD
  8
SLD-0
 10
38.53011534501744
 20
29.48951694304695
 30
0.0
  0
VERTEX
  5
7DE
  8
SLD-0
 10
38.53011534501744
 20
27.84193881804695
 30
0.0
  0
VERTEX
  5
7DF
  8
SLD-0
 10
38.44620909501744
 20
27.84193881804695
 30
0.0
  0
VERTEX
  5
7E0
  8
SLD-0
 10
38.44620909501744
 20
31.17428256804695
 30
0.0
  0
VERTEX
  5
7E1
  8
SLD-0
 10
38.53011534501744
 20
31.17428256804695
 30
0.0
  0
VERTEX
  5
7E2
  8
SLD-0
 10
38.53011534501744
 20
29.64201694304695
 30
0.0
  0
VERTEX
  5
7E3
  8
SLD-0
 10
39.72208800126744
 20
31.23193881804695
 30
0.0
  0
VERTEX
  5
7E4
  8
SLD-0
 10
40.37775206376744
 20
31.23193881804695
 30
0.0
  0
SEQEND
  5
D4A
  8
SLD-0
  0
POLYLINE
  5
11E
  8
SLD-0
 66
     1
 10
0.0
 20
0.0
 30
0.0
 70
     1
  0
VERTEX
  5
7E5
  8
SLD-0
 10
42.28011534501744
 20
27.84193881804695
 30
0.0
  0
VERTEX
  5
7E6
  8
SLD-0
 10
42.19620909501744
 20
27.84193881804695
 30
0.0
  0
VERTEX
  5
7E7
  8
SLD-0
 10
42.19620909501744
 20
31.17303256804695
 30
0.0
  0
VERTEX
  5
7E8
  8
SLD-0
 10
42.28011534501744
 20
31.17303256804695
 30
0.0
  0
SEQEND
  5
D4B
  8
SLD-0
  0
POLYLINE
  5
11F
  8
SLD-0
 66
     1
 10
0.0
 20
0.0
 30
0.0
 70
     1
  0
VERTEX
  5
7E9
  8
SLD-0
 10
42.28011534501744
 20
32.00834506804695
 30
0.0
  0
VERTEX
  5
7EA
  8
SLD-0
 10
42.19620909501744
 20
32.00834506804695
 30
0.0
  0
VERTEX
  5
7EB
  8
SLD-0
 10
42.19620909501744
 20
32.84193881804695
 30
0.0
  0
VERTEX
  5
7EC
  8
SLD-0
 10
42.28011534501744
 20
32.84193881804695
 30
0.0
  0
SEQEND
  5
D4C
  8
SLD-0
  0
POLYLINE
  5
120
  8
SLD-0
 66
     1
 10
0.0
 20
0.0
 30
0.0
 70
     1
  0
VERTEX
  5
7ED
  8
SLD-0
 10
46.01441222001744
 20
27.88686069304695
 30
0.0
  0
VERTEX
  5
7EE
  8
SLD-0
 10
45.95341612626744
 20
27.80553256804695
 30
0.0
  0
VERTEX
  5
7EF
  8
SLD-0
 10
45.35874815751744
 20
28.60193881804695
 30
0.0
  0
VERTEX
  5
7F0
  8
SLD-0
 10
44.75130675126744
 20
27.79193881804695
 30
0.0
  0
VERTEX
  5
7F1
  8
SLD-0
 10
44.09558409501744
 20
27.79193881804695
 30
0.0
  0
VERTEX
  5
7F2
  8
SLD-0
 10
43.44495909501744
 20
28.65615756804695
 30
0.0
  0
VERTEX
  5
7F3
  8
SLD-0
 10
43.44495909501744
 20
30.36428256804695
 30
0.0
  0
VERTEX
  5
7F4
  8
SLD-0
 10
44.09558409501744
 20
31.23193881804695
 30
0.0
  0
VERTEX
  5
7F5
  8
SLD-0
 10
44.75130675126744
 20
31.23193881804695
 30
0.0
  0
VERTEX
  5
7F6
  8
SLD-0
 10
45.40193175126744
 20
30.36428256804695
 30
0.0
  0
VERTEX
  5
7F7
  8
SLD-0
 10
45.40193175126744
 20
28.69686069304695
 30
0.0
  0
SEQEND
  5
D4D
  8
SLD-0
  0
POLYLINE
  5
121
  8
SLD-0
 66
     1
 10
0.0
 20
0.0
 30
0.0
 70
     1
  0
VERTEX
  5
7F8
  8
SLD-0
 10
45.31808409501744
 20
28.69592319304695
 30
0.0
  0
VERTEX
  5
7F9
  8
SLD-0
 10
45.31808409501744
 20
30.32248569304695
 30
0.0
  0
VERTEX
  5
7FA
  8
SLD-0
 10
44.72083800126744
 20
31.11881381804695
 30
0.0
  0
VERTEX
  5
7FB
  8
SLD-0
 10
44.12611143876744
 20
31.11881381804695
 30
0.0
  0
VERTEX
  5
7FC
  8
SLD-0
 10
43.52886534501744
 20
30.32248569304695
 30
0.0
  0
VERTEX
  5
7FD
  8
SLD-0
 10
43.52886534501744
 20
28.69592319304695
 30
0.0
  0
VERTEX
  5
7FE
  8
SLD-0
 10
44.12611143876744
 20
27.89951694304695
 30
0.0
  0
VERTEX
  5
7FF
  8
SLD-0
 10
44.72083800126744
 20
27.89951694304695
 30
0.0
  0
SEQEND
  5
D4E
  8
SLD-0
  0
POLYLINE
  5
122
  8
SLD-0
 66
     1
 10
0.0
 20
0.0
 30
0.0
 70
     1
  0
VERTEX
  5
800
  8
SLD-0
 10
49.77712706376744
 20
27.84193881804695
 30
0.0
  0
VERTEX
  5
801
  8
SLD-0
 10
49.69327940751744
 20
27.84193881804695
 30
0.0
  0
VERTEX
  5
802
  8
SLD-0
 10
49.69327940751744
 20
30.32248569304695
 30
0.0
  0
VERTEX
  5
803
  8
SLD-0
 10
49.09345518876744
 20
31.11881381804695
 30
0.0
  0
VERTEX
  5
804
  8
SLD-0
 10
48.50130675126744
 20
31.11881381804695
 30
0.0
  0
VERTEX
  5
805
  8
SLD-0
 10
47.27886534501744
 20
29.48881381804695
 30
0.0
  0
VERTEX
  5
806
  8
SLD-0
 10
47.27886534501744
 20
27.84193881804695
 30
0.0
  0
VERTEX
  5
807
  8
SLD-0
 10
47.19495909501744
 20
27.84193881804695
 30
0.0
  0
VERTEX
  5
808
  8
SLD-0
 10
47.19495909501744
 20
31.17428256804695
 30
0.0
  0
VERTEX
  5
809
  8
SLD-0
 10
47.27886534501744
 20
31.17428256804695
 30
0.0
  0
VERTEX
  5
80A
  8
SLD-0
 10
47.27886534501744
 20
29.64201694304695
 30
0.0
  0
VERTEX
  5
80B
  8
SLD-0
 10
48.47083800126744
 20
31.23193881804695
 30
0.0
  0
VERTEX
  5
80C
  8
SLD-0
 10
49.12650206376744
 20
31.23193881804695
 30
0.0
  0
VERTEX
  5
80D
  8
SLD-0
 10
49.77712706376744
 20
30.36412631804695
 30
0.0
  0
SEQEND
  5
D4F
  8
SLD-0
  0
POLYLINE
  5
123
  8
SLD-0
 66
     1
 10
0.0
 20
0.0
 30
0.0
 70
     1
  0
VERTEX
  5
80E
  8
SLD-0
 10
57.23394347001744
 20
27.79193881804695
 30
0.0
  0
VERTEX
  5
80F
  8
SLD-0
 10
54.69495909501744
 20
27.79193881804695
 30
0.0
  0
VERTEX
  5
810
  8
SLD-0
 10
54.69495909501744
 20
32.84193881804695
 30
0.0
  0
VERTEX
  5
811
  8
SLD-0
 10
54.77886534501744
 20
32.84193881804695
 30
0.0
  0
VERTEX
  5
812
  8
SLD-0
 10
54.77886534501744
 20
27.90037631804695
 30
0.0
  0
VERTEX
  5
813
  8
SLD-0
 10
57.23394347001744
 20
27.90037631804695
 30
0.0
  0
SEQEND
  5
D50
  8
SLD-0
  0
POLYLINE
  5
124
  8
SLD-0
 66
     1
 10
0.0
 20
0.0
 30
0.0
 70
     1
  0
VERTEX
  5
814
  8
SLD-0
 10
61.01441222001744
 20
27.88686069304695
 30
0.0
  0
VERTEX
  5
815
  8
SLD-0
 10
60.95341612626744
 20
27.80553256804695
 30
0.0
  0
VERTEX
  5
816
  8
SLD-0
 10
60.35874815751744
 20
28.60193881804695
 30
0.0
  0
VERTEX
  5
817
  8
SLD-0
 10
59.75130675126744
 20
27.79193881804695
 30
0.0
  0
VERTEX
  5
818
  8
SLD-0
 10
59.09558409501744
 20
27.79193881804695
 30
0.0
  0
VERTEX
  5
819
  8
SLD-0
 10
58.44495909501744
 20
28.65615756804695
 30
0.0
  0
VERTEX
  5
81A
  8
SLD-0
 10
58.44495909501744
 20
30.36428256804695
 30
0.0
  0
VERTEX
  5
81B
  8
SLD-0
 10
59.09558409501744
 20
31.23193881804695
 30
0.0
  0
VERTEX
  5
81C
  8
SLD-0
 10
59.75130675126744
 20
31.23193881804695
 30
0.0
  0
VERTEX
  5
81D
  8
SLD-0
 10
60.40193175126744
 20
30.36428256804695
 30
0.0
  0
VERTEX
  5
81E
  8
SLD-0
 10
60.40193175126744
 20
28.69686069304695
 30
0.0
  0
SEQEND
  5
D51
  8
SLD-0
  0
POLYLINE
  5
125
  8
SLD-0
 66
     1
 10
0.0
 20
0.0
 30
0.0
 70
     1
  0
VERTEX
  5
81F
  8
SLD-0
 10
60.31808409501744
 20
28.69592319304695
 30
0.0
  0
VERTEX
  5
820
  8
SLD-0
 10
60.31808409501744
 20
30.32248569304695
 30
0.0
  0
VERTEX
  5
821
  8
SLD-0
 10
59.72083800126744
 20
31.11881381804695
 30
0.0
  0
VERTEX
  5
822
  8
SLD-0
 10
59.12611143876744
 20
31.11881381804695
 30
0.0
  0
VERTEX
  5
823
  8
SLD-0
 10
58.52886534501744
 20
30.32248569304695
 30
0.0
  0
VERTEX
  5
824
  8
SLD-0
 10
58.52886534501744
 20
28.69592319304695
 30
0.0
  0
VERTEX
  5
825
  8
SLD-0
 10
59.12611143876744
 20
27.89951694304695
 30
0.0
  0
VERTEX
  5
826
  8
SLD-0
 10
59.72083800126744
 20
27.89951694304695
 30
0.0
  0
SEQEND
  5
D52
  8
SLD-0
  0
POLYLINE
  5
126
  8
SLD-0
 66
     1
 10
0.0
 20
0.0
 30
0.0
 70
     1
  0
VERTEX
  5
827
  8
SLD-0
 10
64.77712706376744
 20
31.16139194304695
 30
0.0
  0
VERTEX
  5
828
  8
SLD-0
 10
64.15193175126744
 20
27.84193881804695
 30
0.0
  0
VERTEX
  5
829
  8
SLD-0
 10
64.06550597001744
 20
27.84193881804695
 30
0.0
  0
VERTEX
  5
82A
  8
SLD-0
 10
63.48607237626744
 20
30.94600131804695
 30
0.0
  0
VERTEX
  5
82B
  8
SLD-0
 10
62.90406065751744
 20
27.84193881804695
 30
0.0
  0
VERTEX
  5
82C
  8
SLD-0
 10
62.81763487626744
 20
27.84193881804695
 30
0.0
  0
VERTEX
  5
82D
  8
SLD-0
 10
62.19495909501744
 20
31.16139194304695
 30
0.0
  0
VERTEX
  5
82E
  8
SLD-0
 10
62.27886534501744
 20
31.19193881804695
 30
0.0
  0
VERTEX
  5
82F
  8
SLD-0
 10
62.86087706376744
 20
28.07248569304695
 30
0.0
  0
VERTEX
  5
830
  8
SLD-0
 10
63.44283018876744
 20
31.17498569304695
 30
0.0
  0
VERTEX
  5
831
  8
SLD-0
 10
63.52925597001744
 20
31.17498569304695
 30
0.0
  0
VERTEX
  5
832
  8
SLD-0
 10
64.10874815751744
 20
28.07248569304695
 30
0.0
  0
VERTEX
  5
833
  8
SLD-0
 10
64.69327940751744
 20
31.19193881804695
 30
0.0
  0
SEQEND
  5
D53
  8
SLD-0
  0
POLYLINE
  5
127
  8
SLD-0
 66
     1
 10
0.0
 20
0.0
 30
0.0
 70
     1
  0
VERTEX
  5
834
  8
SLD-0
 10
68.54242003251744
 20
28.67654819304695
 30
0.0
  0
VERTEX
  5
835
  8
SLD-0
 10
67.87650206376745
 20
27.79193881804695
 30
0.0
  0
VERTEX
  5
836
  8
SLD-0
 10
65.98562315751744
 20
27.79193881804695
 30
0.0
  0
VERTEX
  5
837
  8
SLD-0
 10
65.98562315751744
 20
27.90037631804695
 30
0.0
  0
VERTEX
  5
838
  8
SLD-0
 10
67.84345518876744
 20
27.90037631804695
 30
0.0
  0
VERTEX
  5
839
  8
SLD-0
 10
68.42804503251745
 20
28.67654819304695
 30
0.0
  0
VERTEX
  5
83A
  8
SLD-0
 10
67.84345518876744
 20
29.45600131804695
 30
0.0
  0
VERTEX
  5
83B
  8
SLD-0
 10
66.59558409501744
 20
29.45600131804695
 30
0.0
  0
VERTEX
  5
83C
  8
SLD-0
 10
65.92972472001745
 20
30.34397006804695
 30
0.0
  0
VERTEX
  5
83D
  8
SLD-0
 10
66.59558409501744
 20
31.23193881804695
 30
0.0
  0
VERTEX
  5
83E
  8
SLD-0
 10
68.48394347001744
 20
31.23193881804695
 30
0.0
  0
VERTEX
  5
83F
  8
SLD-0
 10
68.48394347001744
 20
31.12006381804695
 30
0.0
  0
VERTEX
  5
840
  8
SLD-0
 10
66.62611143876744
 20
31.12006381804695
 30
0.0
  0
VERTEX
  5
841
  8
SLD-0
 10
66.04409972001744
 20
30.34397006804695
 30
0.0
  0
VERTEX
  5
842
  8
SLD-0
 10
66.62611143876744
 20
29.56443881804695
 30
0.0
  0
VERTEX
  5
843
  8
SLD-0
 10
67.87650206376745
 20
29.56443881804695
 30
0.0
  0
SEQEND
  5
D54
  8
SLD-0
  0
POLYLINE
  5
128
  8
SLD-0
 66
     1
 10
0.0
 20
0.0
 30
0.0
 70
     1
  0
VERTEX
  5
844
  8
SLD-0
 10
77.27499815751744
 20
32.82123569304695
 30
0.0
  0
VERTEX
  5
845
  8
SLD-0
 10
76.02712706376744
 20
27.84193881804695
 30
0.0
  0
VERTEX
  5
846
  8
SLD-0
 10
75.94075987626744
 20
27.84193881804695
 30
0.0
  0
VERTEX
  5
847
  8
SLD-0
 10
75.35874815751744
 20
30.16654819304695
 30
0.0
  0
VERTEX
  5
848
  8
SLD-0
 10
74.77925597001745
 20
27.84193881804695
 30
0.0
  0
VERTEX
  5
849
  8
SLD-0
 10
74.69283018876745
 20
27.84193881804695
 30
0.0
  0
VERTEX
  5
84A
  8
SLD-0
 10
73.44495909501744
 20
32.82123569304695
 30
0.0
  0
VERTEX
  5
84B
  8
SLD-0
 10
73.52886534501744
 20
32.86193881804695
 30
0.0
  0
VERTEX
  5
84C
  8
SLD-0
 10
74.73607237626744
 20
28.01818881804695
 30
0.0
  0
VERTEX
  5
84D
  8
SLD-0
 10
75.35874815751744
 20
30.51631381804695
 30
0.0
  0
VERTEX
  5
84E
  8
SLD-0
 10
75.98394347001744
 20
28.01818881804695
 30
0.0
  0
VERTEX
  5
84F
  8
SLD-0
 10
77.19115050126744
 20
32.86193881804695
 30
0.0
  0
SEQEND
  5
D55
  8
SLD-0
  0
POLYLINE
  5
129
  8
SLD-0
 66
     1
 10
0.0
 20
0.0
 30
0.0
 70
     1
  0
VERTEX
  5
850
  8
SLD-0
 10
81.02587706376744
 20
28.65615756804695
 30
0.0
  0
VERTEX
  5
851
  8
SLD-0
 10
80.37525206376745
 20
27.79193881804695
 30
0.0
  0
VERTEX
  5
852
  8
SLD-0
 10
79.09433409501744
 20
27.79193881804695
 30
0.0
  0
VERTEX
  5
853
  8
SLD-0
 10
78.44370909501744
 20
28.65615756804695
 30
0.0
  0
VERTEX
  5
854
  8
SLD-0
 10
78.44370909501744
 20
30.36428256804695
 30
0.0
  0
VERTEX
  5
855
  8
SLD-0
 10
79.09433409501744
 20
31.23193881804695
 30
0.0
  0
VERTEX
  5
856
  8
SLD-0
 10
80.37525206376745
 20
31.23193881804695
 30
0.0
  0
VERTEX
  5
857
  8
SLD-0
 10
81.02587706376744
 20
30.36428256804695
 30
0.0
  0
SEQEND
  5
D56
  8
SLD-0
  0
POLYLINE
  5
12A
  8
SLD-0
 66
     1
 10
0.0
 20
0.0
 30
0.0
 70
     1
  0
VERTEX
  5
858
  8
SLD-0
 10
80.94202940751744
 20
28.69592319304695
 30
0.0
  0
VERTEX
  5
859
  8
SLD-0
 10
80.94202940751744
 20
30.32248569304695
 30
0.0
  0
VERTEX
  5
85A
  8
SLD-0
 10
80.34220518876744
 20
31.11881381804695
 30
0.0
  0
VERTEX
  5
85B
  8
SLD-0
 10
79.12486143876744
 20
31.11881381804695
 30
0.0
  0
VERTEX
  5
85C
  8
SLD-0
 10
78.52761534501744
 20
30.32248569304695
 30
0.0
  0
VERTEX
  5
85D
  8
SLD-0
 10
78.52761534501744
 20
28.69592319304695
 30
0.0
  0
VERTEX
  5
85E
  8
SLD-0
 10
79.12486143876744
 20
27.89951694304695
 30
0.0
  0
VERTEX
  5
85F
  8
SLD-0
 10
80.34220518876744
 20
27.89951694304695
 30
0.0
  0
SEQEND
  5
D57
  8
SLD-0
  0
POLYLINE
  5
12B
  8
SLD-0
 66
     1
 10
0.0
 20
0.0
 30
0.0
 70
     1
  0
VERTEX
  5
860
  8
SLD-0
 10
84.77587706376744
 20
28.65615756804695
 30
0.0
  0
VERTEX
  5
861
  8
SLD-0
 10
84.12525206376745
 20
27.79193881804695
 30
0.0
  0
VERTEX
  5
862
  8
SLD-0
 10
82.84433409501744
 20
27.79193881804695
 30
0.0
  0
VERTEX
  5
863
  8
SLD-0
 10
82.19370909501744
 20
28.65615756804695
 30
0.0
  0
VERTEX
  5
864
  8
SLD-0
 10
82.19370909501744
 20
30.36428256804695
 30
0.0
  0
VERTEX
  5
865
  8
SLD-0
 10
82.84433409501744
 20
31.23193881804695
 30
0.0
  0
VERTEX
  5
866
  8
SLD-0
 10
84.12525206376745
 20
31.23193881804695
 30
0.0
  0
VERTEX
  5
867
  8
SLD-0
 10
84.77587706376744
 20
30.36428256804695
 30
0.0
  0
SEQEND
  5
D58
  8
SLD-0
  0
POLYLINE
  5
12C
  8
SLD-0
 66
     1
 10
0.0
 20
0.0
 30
0.0
 70
     1
  0
VERTEX
  5
868
  8
SLD-0
 10
84.69202940751744
 20
28.69592319304695
 30
0.0
  0
VERTEX
  5
869
  8
SLD-0
 10
84.69202940751744
 20
30.32248569304695
 30
0.0
  0
VERTEX
  5
86A
  8
SLD-0
 10
84.09220518876744
 20
31.11881381804695
 30
0.0
  0
VERTEX
  5
86B
  8
SLD-0
 10
82.87486143876744
 20
31.11881381804695
 30
0.0
  0
VERTEX
  5
86C
  8
SLD-0
 10
82.27761534501744
 20
30.32248569304695
 30
0.0
  0
VERTEX
  5
86D
  8
SLD-0
 10
82.27761534501744
 20
28.69592319304695
 30
0.0
  0
VERTEX
  5
86E
  8
SLD-0
 10
82.87486143876744
 20
27.89951694304695
 30
0.0
  0
VERTEX
  5
86F
  8
SLD-0
 10
84.09220518876744
 20
27.89951694304695
 30
0.0
  0
SEQEND
  5
D59
  8
SLD-0
  0
POLYLINE
  5
12D
  8
SLD-0
 66
     1
 10
0.0
 20
0.0
 30
0.0
 70
     1
  0
VERTEX
  5
870
  8
SLD-0
 10
88.52587706376744
 20
27.84193881804695
 30
0.0
  0
VERTEX
  5
871
  8
SLD-0
 10
88.44202940751744
 20
27.84193881804695
 30
0.0
  0
VERTEX
  5
872
  8
SLD-0
 10
88.44202940751744
 20
29.37701694304695
 30
0.0
  0
VERTEX
  5
873
  8
SLD-0
 10
87.25005675126744
 20
27.79193881804695
 30
0.0
  0
VERTEX
  5
874
  8
SLD-0
 10
86.59433409501744
 20
27.79193881804695
 30
0.0
  0
VERTEX
  5
875
  8
SLD-0
 10
85.94370909501744
 20
28.65615756804695
 30
0.0
  0
VERTEX
  5
876
  8
SLD-0
 10
85.94370909501744
 20
30.36428256804695
 30
0.0
  0
VERTEX
  5
877
  8
SLD-0
 10
86.59433409501744
 20
31.23193881804695
 30
0.0
  0
VERTEX
  5
878
  8
SLD-0
 10
87.25005675126744
 20
31.23193881804695
 30
0.0
  0
VERTEX
  5
879
  8
SLD-0
 10
88.44202940751744
 20
29.64264194304695
 30
0.0
  0
VERTEX
  5
87A
  8
SLD-0
 10
88.44202940751744
 20
32.84193881804695
 30
0.0
  0
VERTEX
  5
87B
  8
SLD-0
 10
88.52587706376744
 20
32.84193881804695
 30
0.0
  0
SEQEND
  5
D5A
  8
SLD-0
  0
POLYLINE
  5
12E
  8
SLD-0
 66
     1
 10
0.0
 20
0.0
 30
0.0
 70
     1
  0
VERTEX
  5
87C
  8
SLD-0
 10
88.42679503251745
 20
29.50920444304695
 30
0.0
  0
VERTEX
  5
87D
  8
SLD-0
 10
87.21958800126744
 20
31.11881381804695
 30
0.0
  0
VERTEX
  5
87E
  8
SLD-0
 10
86.62486143876744
 20
31.11881381804695
 30
0.0
  0
VERTEX
  5
87F
  8
SLD-0
 10
86.02761534501744
 20
30.32248569304695
 30
0.0
  0
VERTEX
  5
880
  8
SLD-0
 10
86.02761534501744
 20
28.69592319304695
 30
0.0
  0
VERTEX
  5
881
  8
SLD-0
 10
86.62486143876744
 20
27.89951694304695
 30
0.0
  0
VERTEX
  5
882
  8
SLD-0
 10
87.21958800126744
 20
27.89951694304695
 30
0.0
  0
SEQEND
  5
D5B
  8
SLD-0
  0
POLYLINE
  5
12F
  8
SLD-0
 66
     1
 10
0.0
 20
0.0
 30
0.0
 70
     1
  0
VERTEX
  5
883
  8
SLD-0
 10
92.29117003251744
 20
30.34397006804695
 30
0.0
  0
VERTEX
  5
884
  8
SLD-0
 10
91.62525206376745
 20
29.45600131804695
 30
0.0
  0
VERTEX
  5
885
  8
SLD-0
 10
89.77761534501744
 20
29.45600131804695
 30
0.0
  0
VERTEX
  5
886
  8
SLD-0
 10
89.77761534501744
 20
28.69686069304695
 30
0.0
  0
VERTEX
  5
887
  8
SLD-0
 10
90.37486143876744
 20
27.90037631804695
 30
0.0
  0
VERTEX
  5
888
  8
SLD-0
 10
91.60749815751744
 20
27.90037631804695
 30
0.0
  0
VERTEX
  5
889
  8
SLD-0
 10
91.60749815751744
 20
27.79193881804695
 30
0.0
  0
VERTEX
  5
88A
  8
SLD-0
 10
90.34433409501744
 20
27.79193881804695
 30
0.0
  0
VERTEX
  5
88B
  8
SLD-0
 10
89.69370909501744
 20
28.65615756804695
 30
0.0
  0
VERTEX
  5
88C
  8
SLD-0
 10
89.69370909501744
 20
30.36428256804695
 30
0.0
  0
VERTEX
  5
88D
  8
SLD-0
 10
90.34433409501744
 20
31.23193881804695
 30
0.0
  0
VERTEX
  5
88E
  8
SLD-0
 10
91.62525206376745
 20
31.23193881804695
 30
0.0
  0
SEQEND
  5
D5C
  8
SLD-0
  0
POLYLINE
  5
130
  8
SLD-0
 66
     1
 10
0.0
 20
0.0
 30
0.0
 70
     1
  0
VERTEX
  5
88F
  8
SLD-0
 10
92.17679503251745
 20
30.34279819304695
 30
0.0
  0
VERTEX
  5
890
  8
SLD-0
 10
91.59220518876744
 20
31.11881381804695
 30
0.0
  0
VERTEX
  5
891
  8
SLD-0
 10
90.37486143876744
 20
31.11881381804695
 30
0.0
  0
VERTEX
  5
892
  8
SLD-0
 10
89.77761534501744
 20
30.32248569304695
 30
0.0
  0
VERTEX
  5
893
  8
SLD-0
 10
89.77761534501744
 20
29.56342319304695
 30
0.0
  0
VERTEX
  5
894
  8
SLD-0
 10
91.59220518876744
 20
29.56342319304695
 30
0.0
  0
SEQEND
  5
D5D
  8
SLD-0
  0
POLYLINE
  5
131
  8
SLD-0
 66
     1
 10
0.0
 20
0.0
 30
0.0
 70
     1
  0
VERTEX
  5
895
  8
SLD-0
 10
96.02587706376744
 20
27.84193881804695
 30
0.0
  0
VERTEX
  5
896
  8
SLD-0
 10
95.94202940751744
 20
27.84193881804695
 30
0.0
  0
VERTEX
  5
897
  8
SLD-0
 10
95.94202940751744
 20
30.32248569304695
 30
0.0
  0
VERTEX
  5
898
  8
SLD-0
 10
95.34220518876744
 20
31.11881381804695
 30
0.0
  0
VERTEX
  5
899
  8
SLD-0
 10
94.75005675126744
 20
31.11881381804695
 30
0.0
  0
VERTEX
  5
89A
  8
SLD-0
 10
93.52761534501744
 20
29.48881381804695
 30
0.0
  0
VERTEX
  5
89B
  8
SLD-0
 10
93.52761534501744
 20
27.84193881804695
 30
0.0
  0
VERTEX
  5
89C
  8
SLD-0
 10
93.44370909501744
 20
27.84193881804695
 30
0.0
  0
VERTEX
  5
89D
  8
SLD-0
 10
93.44370909501744
 20
31.17428256804695
 30
0.0
  0
VERTEX
  5
89E
  8
SLD-0
 10
93.52761534501744
 20
31.17428256804695
 30
0.0
  0
VERTEX
  5
89F
  8
SLD-0
 10
93.52761534501744
 20
29.64201694304695
 30
0.0
  0
VERTEX
  5
8A0
  8
SLD-0
 10
94.71958800126744
 20
31.23193881804695
 30
0.0
  0
VERTEX
  5
8A1
  8
SLD-0
 10
95.37525206376745
 20
31.23193881804695
 30
0.0
  0
VERTEX
  5
8A2
  8
SLD-0
 10
96.02587706376744
 20
30.36412631804695
 30
0.0
  0
SEQEND
  5
D5E
  8
SLD-0
  0
POLYLINE
  5
132
  8
SLD-0
 66
     1
 10
0.0
 20
0.0
 30
0.0
 70
     1
  0
VERTEX
  5
8A3
  8
SLD-0
 10
103.4826934700174
 20
27.79193881804695
 30
0.0
  0
VERTEX
  5
8A4
  8
SLD-0
 10
101.5943340950174
 20
27.79193881804695
 30
0.0
  0
VERTEX
  5
8A5
  8
SLD-0
 10
100.9437090950174
 20
28.65615756804695
 30
0.0
  0
VERTEX
  5
8A6
  8
SLD-0
 10
100.9437090950174
 20
30.36428256804695
 30
0.0
  0
VERTEX
  5
8A7
  8
SLD-0
 10
101.5943340950174
 20
31.23193881804695
 30
0.0
  0
VERTEX
  5
8A8
  8
SLD-0
 10
103.4826934700174
 20
31.23193881804695
 30
0.0
  0
VERTEX
  5
8A9
  8
SLD-0
 10
103.4826934700174
 20
31.12006381804695
 30
0.0
  0
VERTEX
  5
8AA
  8
SLD-0
 10
101.6248614387674
 20
31.12006381804695
 30
0.0
  0
VERTEX
  5
8AB
  8
SLD-0
 10
101.0276153450174
 20
30.32365756804695
 30
0.0
  0
VERTEX
  5
8AC
  8
SLD-0
 10
101.0276153450174
 20
28.69686069304695
 30
0.0
  0
VERTEX
  5
8AD
  8
SLD-0
 10
101.6248614387674
 20
27.90037631804695
 30
0.0
  0
VERTEX
  5
8AE
  8
SLD-0
 10
103.4826934700174
 20
27.90037631804695
 30
0.0
  0
SEQEND
  5
D5F
  8
SLD-0
  0
POLYLINE
  5
133
  8
SLD-0
 66
     1
 10
0.0
 20
0.0
 30
0.0
 70
     1
  0
VERTEX
  5
8AF
  8
SLD-0
 10
105.3900958137674
 20
27.88826694304695
 30
0.0
  0
VERTEX
  5
8B0
  8
SLD-0
 10
105.3290997200174
 20
27.80693881804695
 30
0.0
  0
VERTEX
  5
8B1
  8
SLD-0
 10
104.6937090950174
 20
28.65740756804695
 30
0.0
  0
VERTEX
  5
8B2
  8
SLD-0
 10
104.6937090950174
 20
32.84193881804695
 30
0.0
  0
VERTEX
  5
8B3
  8
SLD-0
 10
104.7776153450174
 20
32.84193881804695
 30
0.0
  0
VERTEX
  5
8B4
  8
SLD-0
 10
104.7776153450174
 20
28.69803256804695
 30
0.0
  0
SEQEND
  5
D60
  8
SLD-0
  0
POLYLINE
  5
134
  8
SLD-0
 66
     1
 10
0.0
 20
0.0
 30
0.0
 70
     1
  0
VERTEX
  5
8B5
  8
SLD-0
 10
109.1508770637674
 20
28.65615756804695
 30
0.0
  0
VERTEX
  5
8B6
  8
SLD-0
 10
108.5002520637674
 20
27.79193881804695
 30
0.0
  0
VERTEX
  5
8B7
  8
SLD-0
 10
107.2193340950174
 20
27.79193881804695
 30
0.0
  0
VERTEX
  5
8B8
  8
SLD-0
 10
106.5687090950174
 20
28.65615756804695
 30
0.0
  0
VERTEX
  5
8B9
  8
SLD-0
 10
106.5687090950174
 20
30.36428256804695
 30
0.0
  0
VERTEX
  5
8BA
  8
SLD-0
 10
107.2193340950174
 20
31.23193881804695
 30
0.0
  0
VERTEX
  5
8BB
  8
SLD-0
 10
108.5002520637674
 20
31.23193881804695
 30
0.0
  0
VERTEX
  5
8BC
  8
SLD-0
 10
109.1508770637674
 20
30.36428256804695
 30
0.0
  0
SEQEND
  5
D61
  8
SLD-0
  0
POLYLINE
  5
135
  8
SLD-0
 66
     1
 10
0.0
 20
0.0
 30
0.0
 70
     1
  0
VERTEX
  5
8BD
  8
SLD-0
 10
109.0670294075174
 20
28.69592319304695
 30
0.0
  0
VERTEX
  5
8BE
  8
SLD-0
 10
109.0670294075174
 20
30.32248569304695
 30
0.0
  0
VERTEX
  5
8BF
  8
SLD-0
 10
108.4672051887674
 20
31.11881381804695
 30
0.0
  0
VERTEX
  5
8C0
  8
SLD-0
 10
107.2498614387674
 20
31.11881381804695
 30
0.0
  0
VERTEX
  5
8C1
  8
SLD-0
 10
106.6526153450174
 20
30.32248569304695
 30
0.0
  0
VERTEX
  5
8C2
  8
SLD-0
 10
106.6526153450174
 20
28.69592319304695
 30
0.0
  0
VERTEX
  5
8C3
  8
SLD-0
 10
107.2498614387674
 20
27.89951694304695
 30
0.0
  0
VERTEX
  5
8C4
  8
SLD-0
 10
108.4672051887674
 20
27.89951694304695
 30
0.0
  0
SEQEND
  5
D62
  8
SLD-0
  0
POLYLINE
  5
136
  8
SLD-0
 66
     1
 10
0.0
 20
0.0
 30
0.0
 70
     1
  0
VERTEX
  5
8C5
  8
SLD-0
 10
112.8576934700174
 20
27.79193881804695
 30
0.0
  0
VERTEX
  5
8C6
  8
SLD-0
 10
110.9693340950174
 20
27.79193881804695
 30
0.0
  0
VERTEX
  5
8C7
  8
SLD-0
 10
110.3187090950174
 20
28.65615756804695
 30
0.0
  0
VERTEX
  5
8C8
  8
SLD-0
 10
110.3187090950174
 20
30.36428256804695
 30
0.0
  0
VERTEX
  5
8C9
  8
SLD-0
 10
110.9693340950174
 20
31.23193881804695
 30
0.0
  0
VERTEX
  5
8CA
  8
SLD-0
 10
112.8576934700174
 20
31.23193881804695
 30
0.0
  0
VERTEX
  5
8CB
  8
SLD-0
 10
112.8576934700174
 20
31.12006381804695
 30
0.0
  0
VERTEX
  5
8CC
  8
SLD-0
 10
110.9998614387674
 20
31.12006381804695
 30
0.0
  0
VERTEX
  5
8CD
  8
SLD-0
 10
110.4026153450174
 20
30.32365756804695
 30
0.0
  0
VERTEX
  5
8CE
  8
SLD-0
 10
110.4026153450174
 20
28.69686069304695
 30
0.0
  0
VERTEX
  5
8CF
  8
SLD-0
 10
110.9998614387674
 20
27.90037631804695
 30
0.0
  0
VERTEX
  5
8D0
  8
SLD-0
 10
112.8576934700174
 20
27.90037631804695
 30
0.0
  0
SEQEND
  5
D63
  8
SLD-0
  0
POLYLINE
  5
137
  8
SLD-0
 66
     1
 10
0.0
 20
0.0
 30
0.0
 70
     1
  0
VERTEX
  5
8D1
  8
SLD-0
 10
116.6381622200174
 20
27.88826694304695
 30
0.0
  0
VERTEX
  5
8D2
  8
SLD-0
 10
116.5771661262674
 20
27.80693881804695
 30
0.0
  0
VERTEX
  5
8D3
  8
SLD-0
 10
115.3445880012674
 20
29.45498569304695
 30
0.0
  0
VERTEX
  5
8D4
  8
SLD-0
 10
114.1526153450174
 20
29.45498569304695
 30
0.0
  0
VERTEX
  5
8D5
  8
SLD-0
 10
114.1526153450174
 20
27.84193881804695
 30
0.0
  0
VERTEX
  5
8D6
  8
SLD-0
 10
114.0687090950174
 20
27.84193881804695
 30
0.0
  0
VERTEX
  5
8D7
  8
SLD-0
 10
114.0687090950174
 20
32.84193881804695
 30
0.0
  0
VERTEX
  5
8D8
  8
SLD-0
 10
114.1526153450174
 20
32.84193881804695
 30
0.0
  0
VERTEX
  5
8D9
  8
SLD-0
 10
114.1526153450174
 20
29.56545444304695
 30
0.0
  0
VERTEX
  5
8DA
  8
SLD-0
 10
115.3445880012674
 20
29.56545444304695
 30
0.0
  0
VERTEX
  5
8DB
  8
SLD-0
 10
116.5771661262674
 20
31.21897006804695
 30
0.0
  0
VERTEX
  5
8DC
  8
SLD-0
 10
116.6381622200174
 20
31.13420444304695
 30
0.0
  0
VERTEX
  5
8DD
  8
SLD-0
 10
115.4157208137674
 20
29.51123569304695
 30
0.0
  0
SEQEND
  5
D64
  8
SLD-0
  0
POLYLINE
  5
138
  8
SLD-0
 66
     1
 10
0.0
 20
0.0
 30
0.0
 70
     1
  0
VERTEX
  5
8DE
  8
SLD-0
 10
120.4161700325174
 20
28.67654819304695
 30
0.0
  0
VERTEX
  5
8DF
  8
SLD-0
 10
119.7502520637674
 20
27.79193881804695
 30
0.0
  0
VERTEX
  5
8E0
  8
SLD-0
 10
117.8593731575174
 20
27.79193881804695
 30
0.0
  0
VERTEX
  5
8E1
  8
SLD-0
 10
117.8593731575174
 20
27.90037631804695
 30
0.0
  0
VERTEX
  5
8E2
  8
SLD-0
 10
119.7172051887674
 20
27.90037631804695
 30
0.0
  0
VERTEX
  5
8E3
  8
SLD-0
 10
120.3017950325174
 20
28.67654819304695
 30
0.0
  0
VERTEX
  5
8E4
  8
SLD-0
 10
119.7172051887674
 20
29.45600131804695
 30
0.0
  0
VERTEX
  5
8E5
  8
SLD-0
 10
118.4693340950174
 20
29.45600131804695
 30
0.0
  0
VERTEX
  5
8E6
  8
SLD-0
 10
117.8034747200174
 20
30.34397006804695
 30
0.0
  0
VERTEX
  5
8E7
  8
SLD-0
 10
118.4693340950174
 20
31.23193881804695
 30
0.0
  0
VERTEX
  5
8E8
  8
SLD-0
 10
120.3576934700174
 20
31.23193881804695
 30
0.0
  0
VERTEX
  5
8E9
  8
SLD-0
 10
120.3576934700174
 20
31.12006381804695
 30
0.0
  0
VERTEX
  5
8EA
  8
SLD-0
 10
118.4998614387674
 20
31.12006381804695
 30
0.0
  0
VERTEX
  5
8EB
  8
SLD-0
 10
117.9178497200174
 20
30.34397006804695
 30
0.0
  0
VERTEX
  5
8EC
  8
SLD-0
 10
118.4998614387674
 20
29.56443881804695
 30
0.0
  0
VERTEX
  5
8ED
  8
SLD-0
 10
119.7502520637674
 20
29.56443881804695
 30
0.0
  0
SEQEND
  5
D65
  8
SLD-0
  0
POLYLINE
  5
139
  8
SLD-0
 66
     1
 10
0.0
 20
0.0
 30
0.0
 70
     1
  0
VERTEX
  5
8EE
  8
SLD-0
 10
35.63350401689245
 20
18.53412956687639
 30
0.0
  0
VERTEX
  5
8EF
  8
SLD-0
 10
34.75818956376744
 20
18.53412956687639
 30
0.0
  0
VERTEX
  5
8F0
  8
SLD-0
 10
34.75818956376744
 20
18.61003581687639
 30
0.0
  0
VERTEX
  5
8F1
  8
SLD-0
 10
35.16740245439244
 20
18.61003581687639
 30
0.0
  0
VERTEX
  5
8F2
  8
SLD-0
 10
35.16740245439244
 20
21.97714519187639
 30
0.0
  0
VERTEX
  5
8F3
  8
SLD-0
 10
34.77955870439244
 20
21.45744987937639
 30
0.0
  0
VERTEX
  5
8F4
  8
SLD-0
 10
34.73686143876745
 20
21.51443425437639
 30
0.0
  0
VERTEX
  5
8F5
  8
SLD-0
 10
35.18339854814245
 20
22.10762956687639
 30
0.0
  0
VERTEX
  5
8F6
  8
SLD-0
 10
35.22433214189245
 20
22.10762956687639
 30
0.0
  0
VERTEX
  5
8F7
  8
SLD-0
 10
35.22433214189245
 20
18.61003581687639
 30
0.0
  0
VERTEX
  5
8F8
  8
SLD-0
 10
35.63350401689245
 20
18.61003581687639
 30
0.0
  0
SEQEND
  5
D66
  8
SLD-0
  0
POLYLINE
  5
13A
  8
SLD-0
 66
     1
 10
0.0
 20
0.0
 30
0.0
 70
     1
  0
VERTEX
  5
8F9
  8
SLD-0
 10
38.28811729814245
 20
20.88798894187639
 30
0.0
  0
VERTEX
  5
8FA
  8
SLD-0
 10
37.83267979814244
 20
20.28052019187639
 30
0.0
  0
VERTEX
  5
8FB
  8
SLD-0
 10
36.95740636064244
 20
20.28052019187639
 30
0.0
  0
VERTEX
  5
8FC
  8
SLD-0
 10
36.53933409501744
 20
19.72292644187639
 30
0.0
  0
VERTEX
  5
8FD
  8
SLD-0
 10
36.53933409501744
 20
18.61003581687639
 30
0.0
  0
VERTEX
  5
8FE
  8
SLD-0
 10
38.25788878251745
 20
18.61003581687639
 30
0.0
  0
VERTEX
  5
8FF
  8
SLD-0
 10
38.25788878251745
 20
18.53412956687639
 30
0.0
  0
VERTEX
  5
900
  8
SLD-0
 10
36.48059972001744
 20
18.53412956687639
 30
0.0
  0
VERTEX
  5
901
  8
SLD-0
 10
36.48059972001744
 20
19.75141862937639
 30
0.0
  0
VERTEX
  5
902
  8
SLD-0
 10
36.93603722001745
 20
20.35883269187639
 30
0.0
  0
VERTEX
  5
903
  8
SLD-0
 10
37.80954698564245
 20
20.35883269187639
 30
0.0
  0
VERTEX
  5
904
  8
SLD-0
 10
38.22942393876745
 20
20.91883269187639
 30
0.0
  0
VERTEX
  5
905
  8
SLD-0
 10
38.22942393876745
 20
21.47172331687639
 30
0.0
  0
VERTEX
  5
906
  8
SLD-0
 10
37.80954698564245
 20
22.03172331687639
 30
0.0
  0
VERTEX
  5
907
  8
SLD-0
 10
36.95740636064244
 20
22.03172331687639
 30
0.0
  0
VERTEX
  5
908
  8
SLD-0
 10
36.53043370439244
 20
21.45744987937639
 30
0.0
  0
VERTEX
  5
909
  8
SLD-0
 10
36.48773643876745
 20
21.51443425437639
 30
0.0
  0
VERTEX
  5
90A
  8
SLD-0
 10
36.93603722001745
 20
22.10762956687639
 30
0.0
  0
VERTEX
  5
90B
  8
SLD-0
 10
37.83267979814244
 20
22.10762956687639
 30
0.0
  0
VERTEX
  5
90C
  8
SLD-0
 10
38.28811729814245
 20
21.50016081687639
 30
0.0
  0
SEQEND
  5
D67
  8
SLD-0
  0
POLYLINE
  5
13B
  8
SLD-0
 66
     1
 10
0.0
 20
0.0
 30
0.0
 70
     1
  0
VERTEX
  5
90D
  8
SLD-0
 10
43.53811729814245
 20
18.56912956687639
 30
0.0
  0
VERTEX
  5
90E
  8
SLD-0
 10
43.47942393876745
 20
18.56912956687639
 30
0.0
  0
VERTEX
  5
90F
  8
SLD-0
 10
43.47942393876745
 20
19.69826237937639
 30
0.0
  0
VERTEX
  5
910
  8
SLD-0
 10
41.78933409501744
 20
19.69826237937639
 30
0.0
  0
VERTEX
  5
911
  8
SLD-0
 10
41.78933409501744
 20
18.56912956687639
 30
0.0
  0
VERTEX
  5
912
  8
SLD-0
 10
41.73059972001744
 20
18.56912956687639
 30
0.0
  0
VERTEX
  5
913
  8
SLD-0
 10
41.73059972001744
 20
19.74605925437639
 30
0.0
  0
VERTEX
  5
914
  8
SLD-0
 10
42.60058214189245
 20
22.06912956687639
 30
0.0
  0
VERTEX
  5
915
  8
SLD-0
 10
42.66817589189245
 20
22.06912956687639
 30
0.0
  0
VERTEX
  5
916
  8
SLD-0
 10
43.53811729814245
 20
19.74605925437639
 30
0.0
  0
SEQEND
  5
D68
  8
SLD-0
  0
POLYLINE
  5
13C
  8
SLD-0
 66
     1
 10
0.0
 20
0.0
 30
0.0
 70
     1
  0
VERTEX
  5
917
  8
SLD-0
 10
43.46162315751744
 20
19.77416862937639
 30
0.0
  0
VERTEX
  5
918
  8
SLD-0
 10
42.63437901689245
 20
21.98015300437639
 30
0.0
  0
VERTEX
  5
919
  8
SLD-0
 10
41.80709386064245
 20
19.77416862937639
 30
0.0
  0
SEQEND
  5
D69
  8
SLD-0
  0
POLYLINE
  5
13D
  8
SLD-0
 66
     1
 10
0.0
 20
0.0
 30
0.0
 70
     1
  0
VERTEX
  5
91A
  8
SLD-0
 10
46.16311729814245
 20
18.56912956687639
 30
0.0
  0
VERTEX
  5
91B
  8
SLD-0
 10
46.10442393876745
 20
18.56912956687639
 30
0.0
  0
VERTEX
  5
91C
  8
SLD-0
 10
46.10442393876745
 20
19.64368425437639
 30
0.0
  0
VERTEX
  5
91D
  8
SLD-0
 10
45.27004307939244
 20
18.53412956687639
 30
0.0
  0
VERTEX
  5
91E
  8
SLD-0
 10
44.81103722001745
 20
18.53412956687639
 30
0.0
  0
VERTEX
  5
91F
  8
SLD-0
 10
44.35559972001744
 20
19.13864519187639
 30
0.0
  0
VERTEX
  5
920
  8
SLD-0
 10
44.35559972001744
 20
20.90012956687639
 30
0.0
  0
VERTEX
  5
921
  8
SLD-0
 10
44.41433409501744
 20
20.90012956687639
 30
0.0
  0
VERTEX
  5
922
  8
SLD-0
 10
44.41433409501744
 20
19.16713737937639
 30
0.0
  0
VERTEX
  5
923
  8
SLD-0
 10
44.83240636064244
 20
18.60998112937639
 30
0.0
  0
VERTEX
  5
924
  8
SLD-0
 10
45.24871495439245
 20
18.60998112937639
 30
0.0
  0
VERTEX
  5
925
  8
SLD-0
 10
46.10442393876745
 20
19.75032487937639
 30
0.0
  0
VERTEX
  5
926
  8
SLD-0
 10
46.10442393876745
 20
20.90012956687639
 30
0.0
  0
VERTEX
  5
927
  8
SLD-0
 10
46.16311729814245
 20
20.90012956687639
 30
0.0
  0
SEQEND
  5
D6A
  8
SLD-0
  0
POLYLINE
  5
13E
  8
SLD-0
 66
     1
 10
0.0
 20
0.0
 30
0.0
 70
     1
  0
VERTEX
  5
928
  8
SLD-0
 10
48.78811729814245
 20
17.97276237937639
 30
0.0
  0
VERTEX
  5
929
  8
SLD-0
 10
48.33267979814244
 20
17.36512956687639
 30
0.0
  0
VERTEX
  5
92A
  8
SLD-0
 10
47.43603722001745
 20
17.36512956687639
 30
0.0
  0
VERTEX
  5
92B
  8
SLD-0
 10
46.98773643876745
 20
17.95914519187639
 30
0.0
  0
VERTEX
  5
92C
  8
SLD-0
 10
47.03043370439244
 20
18.01853581687639
 30
0.0
  0
VERTEX
  5
92D
  8
SLD-0
 10
47.45740636064244
 20
17.44355144187639
 30
0.0
  0
VERTEX
  5
92E
  8
SLD-0
 10
48.30954698564245
 20
17.44355144187639
 30
0.0
  0
VERTEX
  5
92F
  8
SLD-0
 10
48.72942393876745
 20
18.00426237937639
 30
0.0
  0
VERTEX
  5
930
  8
SLD-0
 10
48.72942393876745
 20
18.53412956687639
 30
0.0
  0
VERTEX
  5
931
  8
SLD-0
 10
47.43603722001745
 20
18.53412956687639
 30
0.0
  0
VERTEX
  5
932
  8
SLD-0
 10
46.98059972001744
 20
19.13908269187639
 30
0.0
  0
VERTEX
  5
933
  8
SLD-0
 10
46.98059972001744
 20
20.33477019187639
 30
0.0
  0
VERTEX
  5
934
  8
SLD-0
 10
47.43603722001745
 20
20.94212956687639
 30
0.0
  0
VERTEX
  5
935
  8
SLD-0
 10
48.33267979814244
 20
20.94212956687639
 30
0.0
  0
VERTEX
  5
936
  8
SLD-0
 10
48.78811729814245
 20
20.33449675437639
 30
0.0
  0
SEQEND
  5
D6B
  8
SLD-0
  0
POLYLINE
  5
13F
  8
SLD-0
 66
     1
 10
0.0
 20
0.0
 30
0.0
 70
     1
  0
VERTEX
  5
937
  8
SLD-0
 10
48.72942393876745
 20
18.60943425437639
 30
0.0
  0
VERTEX
  5
938
  8
SLD-0
 10
48.72942393876745
 20
20.30551237937639
 30
0.0
  0
VERTEX
  5
939
  8
SLD-0
 10
48.30954698564245
 20
20.86294206687639
 30
0.0
  0
VERTEX
  5
93A
  8
SLD-0
 10
47.45740636064244
 20
20.86294206687639
 30
0.0
  0
VERTEX
  5
93B
  8
SLD-0
 10
47.03933409501744
 20
20.30551237937639
 30
0.0
  0
VERTEX
  5
93C
  8
SLD-0
 10
47.03933409501744
 20
19.16691862937639
 30
0.0
  0
VERTEX
  5
93D
  8
SLD-0
 10
47.45740636064244
 20
18.60943425437639
 30
0.0
  0
SEQEND
  5
D6C
  8
SLD-0
  0
POLYLINE
  5
140
  8
SLD-0
 66
     1
 10
0.0
 20
0.0
 30
0.0
 70
     1
  0
VERTEX
  5
93E
  8
SLD-0
 10
51.41311729814245
 20
18.56912956687639
 30
0.0
  0
VERTEX
  5
93F
  8
SLD-0
 10
51.35442393876745
 20
18.56912956687639
 30
0.0
  0
VERTEX
  5
940
  8
SLD-0
 10
51.35442393876745
 20
19.64368425437639
 30
0.0
  0
VERTEX
  5
941
  8
SLD-0
 10
50.52004307939244
 20
18.53412956687639
 30
0.0
  0
VERTEX
  5
942
  8
SLD-0
 10
50.06103722001745
 20
18.53412956687639
 30
0.0
  0
VERTEX
  5
943
  8
SLD-0
 10
49.60559972001744
 20
19.13864519187639
 30
0.0
  0
VERTEX
  5
944
  8
SLD-0
 10
49.60559972001744
 20
20.90012956687639
 30
0.0
  0
VERTEX
  5
945
  8
SLD-0
 10
49.66433409501744
 20
20.90012956687639
 30
0.0
  0
VERTEX
  5
946
  8
SLD-0
 10
49.66433409501744
 20
19.16713737937639
 30
0.0
  0
VERTEX
  5
947
  8
SLD-0
 10
50.08240636064244
 20
18.60998112937639
 30
0.0
  0
VERTEX
  5
948
  8
SLD-0
 10
50.49871495439245
 20
18.60998112937639
 30
0.0
  0
VERTEX
  5
949
  8
SLD-0
 10
51.35442393876745
 20
19.75032487937639
 30
0.0
  0
VERTEX
  5
94A
  8
SLD-0
 10
51.35442393876745
 20
20.90012956687639
 30
0.0
  0
VERTEX
  5
94B
  8
SLD-0
 10
51.41311729814245
 20
20.90012956687639
 30
0.0
  0
SEQEND
  5
D6D
  8
SLD-0
  0
POLYLINE
  5
141
  8
SLD-0
 66
     1
 10
0.0
 20
0.0
 30
0.0
 70
     1
  0
VERTEX
  5
94C
  8
SLD-0
 10
54.04882237626745
 20
19.15335612937639
 30
0.0
  0
VERTEX
  5
94D
  8
SLD-0
 10
53.58267979814244
 20
18.53412956687639
 30
0.0
  0
VERTEX
  5
94E
  8
SLD-0
 10
52.25906456376745
 20
18.53412956687639
 30
0.0
  0
VERTEX
  5
94F
  8
SLD-0
 10
52.25906456376745
 20
18.61003581687639
 30
0.0
  0
VERTEX
  5
950
  8
SLD-0
 10
53.55954698564245
 20
18.61003581687639
 30
0.0
  0
VERTEX
  5
951
  8
SLD-0
 10
53.96875987626745
 20
19.15335612937639
 30
0.0
  0
VERTEX
  5
952
  8
SLD-0
 10
53.55954698564245
 20
19.69897331687639
 30
0.0
  0
VERTEX
  5
953
  8
SLD-0
 10
52.68603722001745
 20
19.69897331687639
 30
0.0
  0
VERTEX
  5
954
  8
SLD-0
 10
52.21993565751745
 20
20.32055144187639
 30
0.0
  0
VERTEX
  5
955
  8
SLD-0
 10
52.68603722001745
 20
20.94212956687639
 30
0.0
  0
VERTEX
  5
956
  8
SLD-0
 10
54.00788878251745
 20
20.94212956687639
 30
0.0
  0
VERTEX
  5
957
  8
SLD-0
 10
54.00788878251745
 20
20.86381706687639
 30
0.0
  0
VERTEX
  5
958
  8
SLD-0
 10
52.70740636064244
 20
20.86381706687639
 30
0.0
  0
VERTEX
  5
959
  8
SLD-0
 10
52.29999815751744
 20
20.32055144187639
 30
0.0
  0
VERTEX
  5
95A
  8
SLD-0
 10
52.70740636064244
 20
19.77487956687639
 30
0.0
  0
VERTEX
  5
95B
  8
SLD-0
 10
53.58267979814244
 20
19.77487956687639
 30
0.0
  0
SEQEND
  5
D6E
  8
SLD-0
  0
POLYLINE
  5
142
  8
SLD-0
 66
     1
 10
0.0
 20
0.0
 30
0.0
 70
     1
  0
VERTEX
  5
95C
  8
SLD-0
 10
56.65421690751744
 20
19.12502800437639
 30
0.0
  0
VERTEX
  5
95D
  8
SLD-0
 10
56.19525206376745
 20
18.52012956687639
 30
0.0
  0
VERTEX
  5
95E
  8
SLD-0
 10
55.72910948564245
 20
19.13924675437639
 30
0.0
  0
VERTEX
  5
95F
  8
SLD-0
 10
55.72910948564245
 20
20.86387175437639
 30
0.0
  0
VERTEX
  5
960
  8
SLD-0
 10
54.88406456376745
 20
20.86387175437639
 30
0.0
  0
VERTEX
  5
961
  8
SLD-0
 10
54.88406456376745
 20
20.94212956687639
 30
0.0
  0
VERTEX
  5
962
  8
SLD-0
 10
55.72910948564245
 20
20.94212956687639
 30
0.0
  0
VERTEX
  5
963
  8
SLD-0
 10
55.72910948564245
 20
22.06912956687639
 30
0.0
  0
VERTEX
  5
964
  8
SLD-0
 10
55.78784386064245
 20
22.06912956687639
 30
0.0
  0
VERTEX
  5
965
  8
SLD-0
 10
55.78784386064245
 20
20.94212956687639
 30
0.0
  0
VERTEX
  5
966
  8
SLD-0
 10
56.63288878251745
 20
20.94212956687639
 30
0.0
  0
VERTEX
  5
967
  8
SLD-0
 10
56.63288878251745
 20
20.86387175437639
 30
0.0
  0
VERTEX
  5
968
  8
SLD-0
 10
55.78784386064245
 20
20.86387175437639
 30
0.0
  0
VERTEX
  5
969
  8
SLD-0
 10
55.78784386064245
 20
19.16773894187639
 30
0.0
  0
VERTEX
  5
96A
  8
SLD-0
 10
56.19525206376745
 20
18.62452800437639
 30
0.0
  0
VERTEX
  5
96B
  8
SLD-0
 10
56.61151964189244
 20
19.18195769187639
 30
0.0
  0
SEQEND
  5
D6F
  8
SLD-0
  0
POLYLINE
  5
143
  8
SLD-0
 66
     1
 10
0.0
 20
0.0
 30
0.0
 70
     1
  0
VERTEX
  5
96C
  8
SLD-0
 10
61.91311729814245
 20
20.88798894187639
 30
0.0
  0
VERTEX
  5
96D
  8
SLD-0
 10
61.45767979814244
 20
20.28052019187639
 30
0.0
  0
VERTEX
  5
96E
  8
SLD-0
 10
60.58240636064244
 20
20.28052019187639
 30
0.0
  0
VERTEX
  5
96F
  8
SLD-0
 10
60.16433409501744
 20
19.72292644187639
 30
0.0
  0
VERTEX
  5
970
  8
SLD-0
 10
60.16433409501744
 20
18.61003581687639
 30
0.0
  0
VERTEX
  5
971
  8
SLD-0
 10
61.88288878251745
 20
18.61003581687639
 30
0.0
  0
VERTEX
  5
972
  8
SLD-0
 10
61.88288878251745
 20
18.53412956687639
 30
0.0
  0
VERTEX
  5
973
  8
SLD-0
 10
60.10559972001744
 20
18.53412956687639
 30
0.0
  0
VERTEX
  5
974
  8
SLD-0
 10
60.10559972001744
 20
19.75141862937639
 30
0.0
  0
VERTEX
  5
975
  8
SLD-0
 10
60.56103722001745
 20
20.35883269187639
 30
0.0
  0
VERTEX
  5
976
  8
SLD-0
 10
61.43454698564245
 20
20.35883269187639
 30
0.0
  0
VERTEX
  5
977
  8
SLD-0
 10
61.85442393876745
 20
20.91883269187639
 30
0.0
  0
VERTEX
  5
978
  8
SLD-0
 10
61.85442393876745
 20
21.47172331687639
 30
0.0
  0
VERTEX
  5
979
  8
SLD-0
 10
61.43454698564245
 20
22.03172331687639
 30
0.0
  0
VERTEX
  5
97A
  8
SLD-0
 10
60.58240636064244
 20
22.03172331687639
 30
0.0
  0
VERTEX
  5
97B
  8
SLD-0
 10
60.15543370439244
 20
21.45744987937639
 30
0.0
  0
VERTEX
  5
97C
  8
SLD-0
 10
60.11273643876745
 20
21.51443425437639
 30
0.0
  0
VERTEX
  5
97D
  8
SLD-0
 10
60.56103722001745
 20
22.10762956687639
 30
0.0
  0
VERTEX
  5
97E
  8
SLD-0
 10
61.45767979814244
 20
22.10762956687639
 30
0.0
  0
VERTEX
  5
97F
  8
SLD-0
 10
61.91311729814245
 20
21.50016081687639
 30
0.0
  0
SEQEND
  5
D70
  8
SLD-0
  0
POLYLINE
  5
144
  8
SLD-0
 66
     1
 10
0.0
 20
0.0
 30
0.0
 70
     1
  0
VERTEX
  5
980
  8
SLD-0
 10
64.10048057939244
 20
19.13919206687639
 30
0.0
  0
VERTEX
  5
981
  8
SLD-0
 10
63.64504307939244
 20
18.53412956687639
 30
0.0
  0
VERTEX
  5
982
  8
SLD-0
 10
63.18603722001745
 20
18.53412956687639
 30
0.0
  0
VERTEX
  5
983
  8
SLD-0
 10
62.73059972001744
 20
19.13919206687639
 30
0.0
  0
VERTEX
  5
984
  8
SLD-0
 10
62.73059972001744
 20
21.50016081687639
 30
0.0
  0
VERTEX
  5
985
  8
SLD-0
 10
63.18603722001745
 20
22.10762956687639
 30
0.0
  0
VERTEX
  5
986
  8
SLD-0
 10
63.64504307939244
 20
22.10762956687639
 30
0.0
  0
VERTEX
  5
987
  8
SLD-0
 10
64.10048057939244
 20
21.50016081687639
 30
0.0
  0
SEQEND
  5
D71
  8
SLD-0
  0
POLYLINE
  5
145
  8
SLD-0
 66
     1
 10
0.0
 20
0.0
 30
0.0
 70
     1
  0
VERTEX
  5
988
  8
SLD-0
 10
64.04178722001744
 20
19.16691862937639
 30
0.0
  0
VERTEX
  5
989
  8
SLD-0
 10
64.04178722001744
 20
21.47019206687639
 30
0.0
  0
VERTEX
  5
98A
  8
SLD-0
 10
63.62371495439245
 20
22.02997331687639
 30
0.0
  0
VERTEX
  5
98B
  8
SLD-0
 10
63.20740636064244
 20
22.02997331687639
 30
0.0
  0
VERTEX
  5
98C
  8
SLD-0
 10
62.78933409501744
 20
21.47019206687639
 30
0.0
  0
VERTEX
  5
98D
  8
SLD-0
 10
62.78933409501744
 20
19.16691862937639
 30
0.0
  0
VERTEX
  5
98E
  8
SLD-0
 10
63.20740636064244
 20
18.60943425437639
 30
0.0
  0
VERTEX
  5
98F
  8
SLD-0
 10
63.62371495439245
 20
18.60943425437639
 30
0.0
  0
SEQEND
  5
D72
  8
SLD-0
  0
POLYLINE
  5
146
  8
SLD-0
 66
     1
 10
0.0
 20
0.0
 30
0.0
 70
     1
  0
VERTEX
  5
990
  8
SLD-0
 10
65.82362901689244
 20
18.53412956687639
 30
0.0
  0
VERTEX
  5
991
  8
SLD-0
 10
64.94831456376744
 20
18.53412956687639
 30
0.0
  0
VERTEX
  5
992
  8
SLD-0
 10
64.94831456376744
 20
18.61003581687639
 30
0.0
  0
VERTEX
  5
993
  8
SLD-0
 10
65.35752745439244
 20
18.61003581687639
 30
0.0
  0
VERTEX
  5
994
  8
SLD-0
 10
65.35752745439244
 20
21.97714519187639
 30
0.0
  0
VERTEX
  5
995
  8
SLD-0
 10
64.96968370439244
 20
21.45744987937639
 30
0.0
  0
VERTEX
  5
996
  8
SLD-0
 10
64.92698643876744
 20
21.51443425437639
 30
0.0
  0
VERTEX
  5
997
  8
SLD-0
 10
65.37352354814244
 20
22.10762956687639
 30
0.0
  0
VERTEX
  5
998
  8
SLD-0
 10
65.41445714189244
 20
22.10762956687639
 30
0.0
  0
VERTEX
  5
999
  8
SLD-0
 10
65.41445714189244
 20
18.61003581687639
 30
0.0
  0
VERTEX
  5
99A
  8
SLD-0
 10
65.82362901689244
 20
18.61003581687639
 30
0.0
  0
SEQEND
  5
D73
  8
SLD-0
  0
POLYLINE
  5
147
  8
SLD-0
 66
     1
 10
0.0
 20
0.0
 30
0.0
 70
     1
  0
VERTEX
  5
99B
  8
SLD-0
 10
68.04060557939243
 20
19.13919206687639
 30
0.0
  0
VERTEX
  5
99C
  8
SLD-0
 10
67.58516807939243
 20
18.53412956687639
 30
0.0
  0
VERTEX
  5
99D
  8
SLD-0
 10
67.12616222001743
 20
18.53412956687639
 30
0.0
  0
VERTEX
  5
99E
  8
SLD-0
 10
66.67072472001743
 20
19.13919206687639
 30
0.0
  0
VERTEX
  5
99F
  8
SLD-0
 10
66.67072472001743
 20
21.50016081687639
 30
0.0
  0
VERTEX
  5
9A0
  8
SLD-0
 10
67.12616222001743
 20
22.10762956687639
 30
0.0
  0
VERTEX
  5
9A1
  8
SLD-0
 10
67.58516807939243
 20
22.10762956687639
 30
0.0
  0
VERTEX
  5
9A2
  8
SLD-0
 10
68.04060557939243
 20
21.50016081687639
 30
0.0
  0
SEQEND
  5
D74
  8
SLD-0
  0
POLYLINE
  5
148
  8
SLD-0
 66
     1
 10
0.0
 20
0.0
 30
0.0
 70
     1
  0
VERTEX
  5
9A3
  8
SLD-0
 10
67.98191222001743
 20
19.16691862937639
 30
0.0
  0
VERTEX
  5
9A4
  8
SLD-0
 10
67.98191222001743
 20
21.47019206687639
 30
0.0
  0
VERTEX
  5
9A5
  8
SLD-0
 10
67.56383995439244
 20
22.02997331687639
 30
0.0
  0
VERTEX
  5
9A6
  8
SLD-0
 10
67.14753136064243
 20
22.02997331687639
 30
0.0
  0
VERTEX
  5
9A7
  8
SLD-0
 10
66.72945909501743
 20
21.47019206687639
 30
0.0
  0
VERTEX
  5
9A8
  8
SLD-0
 10
66.72945909501743
 20
19.16691862937639
 30
0.0
  0
VERTEX
  5
9A9
  8
SLD-0
 10
67.14753136064243
 20
18.60943425437639
 30
0.0
  0
VERTEX
  5
9AA
  8
SLD-0
 10
67.56383995439244
 20
18.60943425437639
 30
0.0
  0
SEQEND
  5
D75
  8
SLD-0
  0
POLYLINE
  5
14A
  8
DEFAULT_3
 66
     1
 10
0.0
 20
0.0
 30
0.0
 70
     1
  0
VERTEX
  5
9AB
  8
DEFAULT_3
 10
295.7762509840674
 20
189.9549842578339
 30
0.0
 42
0.0336359232400172
  0
VERTEX
  5
9AC
  8
DEFAULT_3
 10
294.5602033910818
 20
191.1710318508194
 30
0.0
 42
-0.202784165895477
  0
VERTEX
  5
9AD
  8
DEFAULT_3
 10
291.8351186124223
 20
196.7765300293502
 30
0.0
  0
VERTEX
  5
9AE
  8
DEFAULT_3
 10
290.0568937812589
 20
230.7070845125924
 30
0.0
 42
-0.501309029141948
  0
VERTEX
  5
9AF
  8
DEFAULT_3
 10
299.9135044997184
 20
238.9047287577023
 30
0.0
 42
-0.2820283682823578
  0
VERTEX
  5
9B0
  8
DEFAULT_3
 10
343.5099478909501
 20
195.3082853664717
 30
0.0
 42
-0.501309091883018
  0
VERTEX
  5
9B1
  8
DEFAULT_3
 10
335.3123022859531
 20
185.4516745303806
 30
0.0
  0
VERTEX
  5
9B2
  8
DEFAULT_3
 10
301.3817489738631
 20
187.2298996682118
 30
0.0
 42
-0.2027841569796512
  0
SEQEND
  5
D76
  8
DEFAULT_3
  0
POLYLINE
  5
14B
  8
DEFAULT_3
 66
     1
 10
0.0
 20
0.0
 30
0.0
 70
     1
  0
VERTEX
  5
9B3
  8
DEFAULT_3
 10
276.5040350191324
 20
189.954984257834
 30
0.0
 42
-0.2027841658954943
  0
VERTEX
  5
9B4
  8
DEFAULT_3
 10
270.8985368406015
 20
187.2298994791743
 30
0.0
  0
VERTEX
  5
9B5
  8
DEFAULT_3
 10
236.9679823573593
 20
185.4516746480114
 30
0.0
 42
-0.5013090291419448
  0
VERTEX
  5
9B6
  8
DEFAULT_3
 10
228.7703381122494
 20
195.308285366471
 30
0.0
 42
-0.2820283682823572
  0
VERTEX
  5
9B7
  8
DEFAULT_3
 10
272.3667815034806
 20
238.9047287577022
 30
0.0
 42
-0.5013090918829908
  0
VERTEX
  5
9B8
  8
DEFAULT_3
 10
282.223392339571
 20
230.7070831527051
 30
0.0
  0
VERTEX
  5
9B9
  8
DEFAULT_3
 10
280.44516720174
 20
196.7765298406152
 30
0.0
 42
-0.2027841569796488
  0
VERTEX
  5
9BA
  8
DEFAULT_3
 10
277.7200826121178
 20
191.1710318508195
 30
0.0
 42
0.0336359232400172
  0
SEQEND
  5
D77
  8
DEFAULT_3
  0
POLYLINE
  5
14C
  8
DEFAULT_3
 66
     1
 10
0.0
 20
0.0
 30
0.0
 70
     1
  0
VERTEX
  5
9BB
  8
DEFAULT_3
 10
291.8351188014597
 20
166.2933178960887
 30
0.0
  0
VERTEX
  5
9BC
  8
DEFAULT_3
 10
290.0568936636286
 20
132.3627645839986
 30
0.0
 42
0.5013090918830109
  0
VERTEX
  5
9BD
  8
DEFAULT_3
 10
299.9135044997195
 20
124.1651189790015
 30
0.0
 42
0.2820283682823594
  0
VERTEX
  5
9BE
  8
DEFAULT_3
 10
343.5099478909507
 20
167.7615623702347
 30
0.0
 42
0.5013090291419123
  0
VERTEX
  5
9BF
  8
DEFAULT_3
 10
335.3123036458405
 20
177.6181730886925
 30
0.0
  0
VERTEX
  5
9C0
  8
DEFAULT_3
 10
301.3817491625982
 20
175.8399482575294
 30
0.0
 42
0.2027841658954878
  0
VERTEX
  5
9C1
  8
DEFAULT_3
 10
295.7762509840675
 20
173.1148634788699
 30
0.0
 42
-0.0336359232400398
  0
VERTEX
  5
9C2
  8
DEFAULT_3
 10
294.560203391082
 20
171.8988158858844
 30
0.0
 42
0.2027841569796602
  0
SEQEND
  5
D78
  8
DEFAULT_3
  0
POLYLINE
  5
14D
  8
DEFAULT_3
 66
     1
 10
0.0
 20
0.0
 30
0.0
 70
     1
  0
VERTEX
  5
9C3
  8
DEFAULT_3
 10
270.8985370293367
 20
175.839948068492
 30
0.0
  0
VERTEX
  5
9C4
  8
DEFAULT_3
 10
236.9679837172466
 20
177.618173206323
 30
0.0
 42
0.5013090918830055
  0
VERTEX
  5
9C5
  8
DEFAULT_3
 10
228.7703381122495
 20
167.7615623702324
 30
0.0
 42
0.2820283682823605
  0
VERTEX
  5
9C6
  8
DEFAULT_3
 10
272.3667815034826
 20
124.165118979001
 30
0.0
 42
0.5013090291419068
  0
VERTEX
  5
9C7
  8
DEFAULT_3
 10
282.2233922219405
 20
132.3627632241113
 30
0.0
  0
VERTEX
  5
9C8
  8
DEFAULT_3
 10
280.4451673907774
 20
166.2933177073535
 30
0.0
 42
0.2027841658954904
  0
VERTEX
  5
9C9
  8
DEFAULT_3
 10
277.7200826121179
 20
171.8988158858841
 30
0.0
 42
-0.0336359232400292
  0
VERTEX
  5
9CA
  8
DEFAULT_3
 10
276.5040350191324
 20
173.1148634788696
 30
0.0
 42
0.2027841569796483
  0
SEQEND
  5
D79
  8
DEFAULT_3
  0
POLYLINE
  5
14E
  8
DEFAULT_3
 66
     1
 10
0.0
 20
0.0
 30
0.0
 70
     1
  0
VERTEX
  5
9CB
  8
DEFAULT_3
 10
243.8167135719686
 20
124.1569357063836
 30
0.0
 42
0.0035708884396042
  0
VERTEX
  5
9CC
  8
DEFAULT_3
 10
244.6405610984605
 20
123.5582829928983
 30
0.0
 42
0.1547276818001151
  0
VERTEX
  5
9CD
  8
DEFAULT_3
 10
247.5592829057832
 20
125.7108587267166
 30
0.0
  0
VERTEX
  5
9CE
  8
DEFAULT_3
 10
247.7070043569468
 20
125.914179202464
 30
0.0
 42
-0.400584309078435
  0
VERTEX
  5
9CF
  8
DEFAULT_3
 10
249.8294211102731
 20
126.3013985381858
 30
0.0
 42
0.0028017183489902
  0
VERTEX
  5
9D0
  8
DEFAULT_3
 10
250.4506818265911
 20
125.8979470321472
 30
0.0
 42
-0.4005843697756857
  0
VERTEX
  5
9D1
  8
DEFAULT_3
 10
250.9602038805919
 20
123.8015259374913
 30
0.0
  0
VERTEX
  5
9D2
  8
DEFAULT_3
 10
250.8271402364212
 20
123.5710496773061
 30
0.0
 42
0.1539514996030503
  0
VERTEX
  5
9D3
  8
DEFAULT_3
 10
250.0461986031765
 20
120.0472564929992
 30
0.0
 42
0.0035708884395974
  0
VERTEX
  5
9D4
  8
DEFAULT_3
 10
250.9281092548898
 20
119.5379987776273
 30
0.0
 42
0.1547276818001121
  0
VERTEX
  5
9D5
  8
DEFAULT_3
 10
253.6058365652377
 20
121.9838719815733
 30
0.0
  0
VERTEX
  5
9D6
  8
DEFAULT_3
 10
253.7314956951109
 20
122.2015205336488
 30
0.0
 42
-0.4005843090784238
  0
VERTEX
  5
9D7
  8
DEFAULT_3
 10
255.8018104961237
 20
122.8084708120866
 30
0.0
 42
0.0028017183490085
  0
VERTEX
  5
9D8
  8
DEFAULT_3
 10
256.4618400471632
 20
122.4721688835772
 30
0.0
 42
-0.4005845950579218
  0
VERTEX
  5
9D9
  8
DEFAULT_3
 10
257.1877064799505
 20
120.4404907991227
 30
0.0
  0
VERTEX
  5
9DA
  8
DEFAULT_3
 10
257.0794625823932
 20
120.1973709036645
 30
0.0
 42
0.1539515751605003
  0
VERTEX
  5
9DB
  8
DEFAULT_3
 10
256.6711363162801
 20
116.6112490296094
 30
0.0
 42
0.00357088843965
  0
VERTEX
  5
9DC
  8
DEFAULT_3
 10
257.6014476955625
 20
116.1969658464498
 30
0.0
 42
0.1547276818001135
  0
VERTEX
  5
9DD
  8
DEFAULT_3
 10
260.0088427681731
 20
118.9093390218691
 30
0.0
  0
VERTEX
  5
9DE
  8
DEFAULT_3
 10
260.1110629539215
 20
119.1389299008749
 30
0.0
 42
-0.4005843090784323
  0
VERTEX
  5
9DF
  8
DEFAULT_3
 10
262.1065928755313
 20
119.958962394081
 30
0.0
 42
0.0028017183490435
  0
VERTEX
  5
9E0
  8
DEFAULT_3
 10
262.7981598394113
 20
119.6934946374052
 30
0.0
 42
-0.4005846400918718
  0
VERTEX
  5
9E1
  8
DEFAULT_3
 10
263.7324175482231
 20
117.748819546872
 30
0.0
  0
VERTEX
  5
9E2
  8
DEFAULT_3
 10
263.6501799022394
 20
117.4957158734139
 30
0.0
 42
0.1539515079982481
  0
VERTEX
  5
9E3
  8
DEFAULT_3
 10
263.618942507337
 20
113.8865589330141
 30
0.0
 42
0.0035708884395945
  0
VERTEX
  5
9E4
  8
DEFAULT_3
 10
264.5874619280368
 20
113.5717892553158
 30
0.0
 42
0.1547276818001075
  0
VERTEX
  5
9E5
  8
DEFAULT_3
 10
266.6981488387148
 20
116.520945074098
 30
0.0
  0
VERTEX
  5
9E6
  8
DEFAULT_3
 10
266.7758103158747
 20
116.7599632018027
 30
0.0
 42
-0.4005843090784335
  0
VERTEX
  5
9E7
  8
DEFAULT_3
 10
268.6746917333866
 20
117.7840930946947
 30
0.0
 42
0.0028017183489883
  0
VERTEX
  5
9E8
  8
DEFAULT_3
 10
269.3902191577309
 20
117.5923680301474
 30
0.0
 42
-0.4005841596369821
  0
VERTEX
  5
9E9
  8
DEFAULT_3
 10
270.5226336290675
 20
115.7560053040322
 30
0.0
  0
VERTEX
  5
9EA
  8
DEFAULT_3
 10
270.4673009609418
 20
115.4956894685563
 30
0.0
 42
0.1539515218950007
  0
VERTEX
  5
9EB
  8
DEFAULT_3
 10
270.813495557796
 20
111.9030384780896
 30
0.0
 42
0.0035708884396303
  0
VERTEX
  5
9EC
  8
DEFAULT_3
 10
271.8096117184645
 20
111.6912309883113
 30
0.0
 42
0.1547276818001203
  0
VERTEX
  5
9ED
  8
DEFAULT_3
 10
273.6004653397267
 20
114.8448578821553
 30
0.0
  0
VERTEX
  5
9EE
  8
DEFAULT_3
 10
273.6527174244025
 20
115.090683730607
 30
0.0
 42
-0.4005843090784322
  0
VERTEX
  5
9EF
  8
DEFAULT_3
 10
275.4341456041399
 20
116.3076912370924
 30
0.0
 42
0.0028017183489802
  0
VERTEX
  5
9F0
  8
DEFAULT_3
 10
276.1657940207539
 20
116.1918094446017
 30
0.0
 42
-0.4005836720297952
  0
VERTEX
  5
9F1
  8
DEFAULT_3
 10
277.4839569499331
 20
114.4838782717523
 30
0.0
  0
VERTEX
  5
9F2
  8
DEFAULT_3
 10
277.4561383446293
 20
114.2192038466271
 30
0.0
 42
0.1539515820437743
  0
VERTEX
  5
9F3
  8
DEFAULT_3
 10
278.1759704388793
 20
110.6824195300185
 30
0.0
 42
0.0035708884396249
  0
VERTEX
  5
9F4
  8
DEFAULT_3
 10
279.1887696824094
 20
110.5758948353417
 30
0.0
 42
0.1547276818001154
  0
VERTEX
  5
9F5
  8
DEFAULT_3
 10
280.6401690472212
 20
113.8994410080596
 30
0.0
  0
VERTEX
  5
9F6
  8
DEFAULT_3
 10
280.6664389344672
 20
114.1493834210562
 30
0.0
 42
-0.400584309078421
  0
VERTEX
  5
9F7
  8
DEFAULT_3
 10
282.3108964966766
 20
115.545932588983
 30
0.0
 42
0.0028017183490097
  0
VERTEX
  5
9F8
  8
DEFAULT_3
 10
283.0506498124004
 20
115.5071636937174
 30
0.0
 42
-0.4005843058961192
  0
VERTEX
  5
9F9
  8
DEFAULT_3
 10
284.5401192932936
 20
113.9463710357484
 30
0.0
  0
VERTEX
  5
9FA
  8
DEFAULT_3
 10
284.5401192932936
 20
113.6802437474068
 30
0.0
 42
0.1539516540002021
  0
VERTEX
  5
9FB
  8
DEFAULT_3
 10
285.6257023350928
 20
110.2380754454267
 30
0.0
 42
0.0035708884396365
  0
VERTEX
  5
9FC
  8
DEFAULT_3
 10
286.6440882210306
 20
110.238000652698
 30
0.0
 42
0.1547276818001095
  0
VERTEX
  5
9FD
  8
DEFAULT_3
 10
287.7401314942263
 20
113.6950526369248
 30
0.0
  0
VERTEX
  5
9FE
  8
DEFAULT_3
 10
287.7401314651449
 20
113.9463708989291
 30
0.0
 42
-0.4005843090784403
  0
VERTEX
  5
9FF
  8
DEFAULT_3
 10
289.2296012891653
 20
115.5071631375233
 30
0.0
 42
0.0028017183490171
  0
VERTEX
  5
A00
  8
DEFAULT_3
 10
289.9693546118687
 20
115.5459318996122
 30
0.0
 42
-0.4005837577404408
  0
VERTEX
  5
A01
  8
DEFAULT_3
 10
291.6138116886454
 20
114.1493844558534
 30
0.0
  0
VERTEX
  5
A02
  8
DEFAULT_3
 10
291.6416298282879
 20
113.8847100307282
 30
0.0
 42
0.1539515732897309
  0
VERTEX
  5
A03
  8
DEFAULT_3
 10
293.0810704248252
 20
110.57487455109
 30
0.0
 42
0.0035708884396212
  0
VERTEX
  5
A04
  8
DEFAULT_3
 10
294.0938853042931
 20
110.6812504797543
 30
0.0
 42
0.1547276818001015
  0
VERTEX
  5
A05
  8
DEFAULT_3
 10
294.8225640064097
 20
114.2339320905161
 30
0.0
  0
VERTEX
  5
A06
  8
DEFAULT_3
 10
294.7962938860007
 20
114.4838721449436
 30
0.0
 42
-0.4005843090784255
  0
VERTEX
  5
A07
  8
DEFAULT_3
 10
296.1144572040675
 20
116.1918076489367
 30
0.0
 42
0.0028017183489812
  0
VERTEX
  5
A08
  8
DEFAULT_3
 10
296.8461056415436
 20
116.3076893097098
 30
0.0
 42
-0.4005841553181714
  0
VERTEX
  5
A09
  8
DEFAULT_3
 10
298.6275340115266
 20
115.0906833578881
 30
0.0
  0
VERTEX
  5
A0A
  8
DEFAULT_3
 10
298.6828648170071
 20
114.8303675224121
 30
0.0
 42
0.1539515514489313
  0
VERTEX
  5
A0B
  8
DEFAULT_3
 10
300.4603921351488
 20
111.689126805527
 30
0.0
 42
0.0035708884395944
  0
VERTEX
  5
A0C
  8
DEFAULT_3
 10
301.4565393963826
 20
111.9007879786492
 30
0.0
 42
0.1547276818000846
  0
VERTEX
  5
A0D
  8
DEFAULT_3
 10
301.8098699710739
 20
115.5101752927722
 30
0.0
  0
VERTEX
  5
A0E
  8
DEFAULT_3
 10
301.7576179549652
 20
115.7559996836973
 30
0.0
 42
-0.4005843090784471
  0
VERTEX
  5
A0F
  8
DEFAULT_3
 10
302.890032319231
 20
117.592365014685
 30
0.0
 42
0.0028017183490099
  0
VERTEX
  5
A10
  8
DEFAULT_3
 10
303.6055597780913
 20
117.7840899504169
 30
0.0
 42
-0.4005845791352619
  0
VERTEX
  5
A11
  8
DEFAULT_3
 10
305.504440391584
 20
116.7599561383065
 30
0.0
  0
VERTEX
  5
A12
  8
DEFAULT_3
 10
305.5866799002128
 20
116.5068524648484
 30
0.0
 42
0.1539514511049872
  0
VERTEX
  5
A13
  8
DEFAULT_3
 10
307.6828180731833
 20
113.5686242278659
 30
0.0
 42
0.0035708884396131
  0
VERTEX
  5
A14
  8
DEFAULT_3
 10
308.6513837183316
 20
113.8832516413403
 30
0.0
 42
0.1547276818001023
  0
VERTEX
  5
A15
  8
DEFAULT_3
 10
308.6254950018821
 20
117.509799456098
 30
0.0
  0
VERTEX
  5
A16
  8
DEFAULT_3
 10
308.5478332474621
 20
117.7488183717952
 30
0.0
 42
-0.4005843090784442
  0
VERTEX
  5
A17
  8
DEFAULT_3
 10
309.4820920158135
 20
119.6934904351835
 30
0.0
 42
0.0028017183490142
  0
VERTEX
  5
A18
  8
DEFAULT_3
 10
310.1736590274852
 20
119.9589580673575
 30
0.0
 42
-0.4005839261630973
  0
VERTEX
  5
A19
  8
DEFAULT_3
 10
312.1691877638536
 20
119.1389265229043
 30
0.0
  0
VERTEX
  5
A1A
  8
DEFAULT_3
 10
312.2774335240561
 20
118.895806627446
 30
0.0
 42
0.1539516593712719
  0
VERTEX
  5
A1B
  8
DEFAULT_3
 10
314.6692178289618
 20
116.1927746510373
 30
0.0
 42
0.0035708884396631
  0
VERTEX
  5
A1C
  8
DEFAULT_3
 10
315.5995900501309
 20
116.6069211810819
 30
0.0
 42
0.1547276818001326
  0
VERTEX
  5
A1D
  8
DEFAULT_3
 10
315.1947656847357
 20
120.2108962797119
 30
0.0
  0
VERTEX
  5
A1E
  8
DEFAULT_3
 10
315.0925456948952
 20
120.4404869426152
 30
0.0
 42
-0.4005843090784374
  0
VERTEX
  5
A1F
  8
DEFAULT_3
 10
315.8184123083023
 20
122.4721635406365
 30
0.0
 42
0.0028017183489701
  0
VERTEX
  5
A20
  8
DEFAULT_3
 10
316.4784419198858
 20
122.8084653503218
 30
0.0
 42
-0.4005843372798308
  0
VERTEX
  5
A21
  8
DEFAULT_3
 10
318.5487567131954
 20
122.2015137543019
 30
0.0
  0
VERTEX
  5
A22
  8
DEFAULT_3
 10
318.6818203573662
 20
121.9710374941166
 30
0.0
 42
0.1539515460390558
  0
VERTEX
  5
A23
  8
DEFAULT_3
 10
321.3430469447619
 20
119.5328273338663
 30
0.0
 42
0.0035708884395959
  0
VERTEX
  5
A24
  8
DEFAULT_3
 10
322.2250323892038
 20
120.0419555044321
 30
0.0
 42
0.1547276818001116
  0
VERTEX
  5
A25
  8
DEFAULT_3
 10
321.4457077153249
 20
123.5838719815737
 30
0.0
  0
VERTEX
  5
A26
  8
DEFAULT_3
 10
321.3200486238637
 20
123.8015191746631
 30
0.0
 42
-0.4005843090784436
  0
VERTEX
  5
A27
  8
DEFAULT_3
 10
321.8295711456125
 20
125.8979406070261
 30
0.0
 42
0.0028017183489417
  0
VERTEX
  5
A28
  8
DEFAULT_3
 10
322.4508319345631
 20
126.30139200122
 30
0.0
 42
-0.4005840384590919
  0
VERTEX
  5
A29
  8
DEFAULT_3
 10
324.5732477550941
 20
125.9141715933617
 30
0.0
  0
VERTEX
  5
A2A
  8
DEFAULT_3
 10
324.7296764200169
 20
125.6988684405621
 30
0.0
 42
0.1539515249352408
  0
VERTEX
  5
A2B
  8
DEFAULT_3
 10
327.6311855522022
 20
123.5521879602087
 30
0.0
 42
0.0035708884396139
  0
VERTEX
  5
A2C
  8
DEFAULT_3
 10
328.4551210028202
 20
124.1507196565171
 30
0.0
 42
0.1547276818001049
  0
VERTEX
  5
A2D
  8
DEFAULT_3
 10
327.3098344646691
 20
127.591771534053
 30
0.0
  0
VERTEX
  5
A2E
  8
DEFAULT_3
 10
327.1621127740148
 20
127.7950925925595
 30
0.0
 42
-0.4005843090784341
  0
VERTEX
  5
A2F
  8
DEFAULT_3
 10
327.4497090136067
 20
129.9332881039228
 30
0.0
 42
0.0028017183489566
  0
VERTEX
  5
A30
  8
DEFAULT_3
 10
328.0253943167136
 20
130.399468784723
 30
0.0
 42
-0.4005838076665258
  0
VERTEX
  5
A31
  8
DEFAULT_3
 10
330.1766580586868
 20
130.2362235953149
 30
0.0
  0
VERTEX
  5
A32
  8
DEFAULT_3
 10
330.3547343855339
 20
130.0384516586598
 30
0.0
 42
0.1539516210164495
  0
VERTEX
  5
A33
  8
DEFAULT_3
 10
333.464739488822
 20
128.2068195739371
 30
0.0
 42
0.0035708884396468
  0
VERTEX
  5
A34
  8
DEFAULT_3
 10
334.2215977363996
 20
128.8881971574726
 30
0.0
 42
0.1547276818001179
  0
VERTEX
  5
A35
  8
DEFAULT_3
 10
332.7228973329547
 20
132.190683550946
 30
0.0
  0
VERTEX
  5
A36
  8
DEFAULT_3
 10
332.5547335285368
 20
132.3774494967905
 30
0.0
 42
-0.4005843090784043
  0
VERTEX
  5
A37
  8
DEFAULT_3
 10
332.6172505057137
 20
134.5339939196999
 30
0.0
 42
0.0028017183489749
  0
VERTEX
  5
A38
  8
DEFAULT_3
 10
333.1410529943262
 20
135.0577963140129
 30
0.0
 42
-0.4005845550100796
  0
VERTEX
  5
A39
  8
DEFAULT_3
 10
335.2975985651451
 20
135.1203138698872
 30
0.0
  0
VERTEX
  5
A3A
  8
DEFAULT_3
 10
335.4953705018002
 20
134.9422375430401
 30
0.0
 42
0.1539515394607759
  0
VERTEX
  5
A3B
  8
DEFAULT_3
 10
338.7797951169423
 20
133.4457250570472
 30
0.0
 42
0.0035708884396513
  0
VERTEX
  5
A3C
  8
DEFAULT_3
 10
339.4612838641362
 20
134.2024832124171
 30
0.0
 42
0.1547276818001063
  0
VERTEX
  5
A3D
  8
DEFAULT_3
 10
337.6255896706408
 20
137.3302213898115
 30
0.0
  0
VERTEX
  5
A3E
  8
DEFAULT_3
 10
337.4388242772731
 20
137.4983862494144
 30
0.0
 42
-0.4005843090784219
  0
VERTEX
  5
A3F
  8
DEFAULT_3
 10
337.2755789559685
 20
139.6496517586802
 30
0.0
 42
0.0028017183489925
  0
VERTEX
  5
A40
  8
DEFAULT_3
 10
337.7417597404084
 20
140.2253369778612
 30
0.0
 42
-0.400584185650194
  0
VERTEX
  5
A41
  8
DEFAULT_3
 10
339.8799552267032
 20
140.5129323472318
 30
0.0
  0
VERTEX
  5
A42
  8
DEFAULT_3
 10
340.0952583795029
 20
140.356503682309
 30
0.0
 42
0.1539515648114134
  0
VERTEX
  5
A43
  8
DEFAULT_3
 10
343.518119574854
 20
139.2115058647546
 30
0.0
 42
0.0035708884396658
  0
VERTEX
  5
A44
  8
DEFAULT_3
 10
344.1167722883396
 20
140.0353533912469
 30
0.0
 42
0.1547276818001037
  0
VERTEX
  5
A45
  8
DEFAULT_3
 10
341.9641965545214
 20
142.9540751985695
 30
0.0
  0
VERTEX
  5
A46
  8
DEFAULT_3
 10
341.7608762851953
 20
143.1017965246514
 30
0.0
 42
-0.4005843090784134
  0
VERTEX
  5
A47
  8
DEFAULT_3
 10
341.373656743052
 20
145.2242134030595
 30
0.0
 42
0.0028017183490015
  0
VERTEX
  5
A48
  8
DEFAULT_3
 10
341.7771082490907
 20
145.8454741193774
 30
0.0
 42
-0.4005844575730081
  0
VERTEX
  5
A49
  8
DEFAULT_3
 10
343.8735297565894
 20
146.3549959232148
 30
0.0
  0
VERTEX
  5
A4A
  8
DEFAULT_3
 10
344.1040060167747
 20
146.221932279044
 30
0.0
 42
0.1539514791550802
  0
VERTEX
  5
A4B
  8
DEFAULT_3
 10
347.6277987882387
 20
145.4409908959629
 30
0.0
 42
0.0035708884396637
  0
VERTEX
  5
A4C
  8
DEFAULT_3
 10
348.1370565036105
 20
146.3229015476761
 30
0.0
 42
0.1547276818001147
  0
VERTEX
  5
A4D
  8
DEFAULT_3
 10
345.6911832996647
 20
149.000628858024
 30
0.0
  0
VERTEX
  5
A4E
  8
DEFAULT_3
 10
345.4735349540106
 20
149.1262878628155
 30
0.0
 42
-0.40058430907841
  0
VERTEX
  5
A4F
  8
DEFAULT_3
 10
344.8665844691512
 20
151.19660278891
 30
0.0
 42
0.0028017183490246
  0
VERTEX
  5
A50
  8
DEFAULT_3
 10
345.2028863976607
 20
151.8566323399496
 30
0.0
 42
-0.4005837728638596
  0
VERTEX
  5
A51
  8
DEFAULT_3
 10
347.2345611696678
 20
152.5824985225734
 30
0.0
  0
VERTEX
  5
A52
  8
DEFAULT_3
 10
347.4776847904163
 20
152.4742546250161
 30
0.0
 42
0.153951555548788
  0
VERTEX
  5
A53
  8
DEFAULT_3
 10
351.0638062516284
 20
152.0659286090665
 30
0.0
 42
0.0035708884395808
  0
VERTEX
  5
A54
  8
DEFAULT_3
 10
351.478089434788
 20
152.9962399883487
 30
0.0
 42
0.154727681800118
  0
VERTEX
  5
A55
  8
DEFAULT_3
 10
348.7657162593688
 20
155.4036350609593
 30
0.0
  0
VERTEX
  5
A56
  8
DEFAULT_3
 10
348.5361255867844
 20
155.5058551216262
 30
0.0
 42
-0.4005843090784272
  0
VERTEX
  5
A57
  8
DEFAULT_3
 10
347.7160928871568
 20
157.5013851683177
 30
0.0
 42
0.0028017183490969
  0
VERTEX
  5
A58
  8
DEFAULT_3
 10
347.9815606438326
 20
158.1929521321977
 30
0.0
 42
-0.4005838459799823
  0
VERTEX
  5
A59
  8
DEFAULT_3
 10
349.9262324219184
 20
159.127209590846
 30
0.0
  0
VERTEX
  5
A5A
  8
DEFAULT_3
 10
350.1793360953766
 20
159.0449719448623
 30
0.0
 42
0.1539516560457358
  0
VERTEX
  5
A5B
  8
DEFAULT_3
 10
353.7884963482238
 20
159.0137348001234
 30
0.0
 42
0.0035708884395854
  0
VERTEX
  5
A5C
  8
DEFAULT_3
 10
354.103266025922
 20
159.9822542208232
 30
0.0
 42
0.1547276818001008
  0
VERTEX
  5
A5D
  8
DEFAULT_3
 10
351.1541102071399
 20
162.0929411315011
 30
0.0
  0
VERTEX
  5
A5E
  8
DEFAULT_3
 10
350.9150941485017
 20
162.1706024835793
 30
0.0
 42
-0.4005843090784185
  0
VERTEX
  5
A5F
  8
DEFAULT_3
 10
349.8909621865431
 20
164.069484026173
 30
0.0
 42
0.002801718349082
  0
VERTEX
  5
A60
  8
DEFAULT_3
 10
350.0826872510904
 20
164.7850114505174
 30
0.0
 42
-0.4005850299426339
  0
VERTEX
  5
A61
  8
DEFAULT_3
 10
351.9190541153388
 20
165.9174256716904
 30
0.0
  0
VERTEX
  5
A62
  8
DEFAULT_3
 10
352.1793625002342
 20
165.8620948662099
 30
0.0
 42
0.1539516624443619
  0
VERTEX
  5
A63
  8
DEFAULT_3
 10
355.7720168031482
 20
166.2082878505825
 30
0.0
 42
0.0035708884395247
  0
VERTEX
  5
A64
  8
DEFAULT_3
 10
355.9838242929266
 20
167.2044040112509
 30
0.0
 42
0.1547276818001069
  0
VERTEX
  5
A65
  8
DEFAULT_3
 10
352.8301973990827
 20
168.9952576325131
 30
0.0
  0
VERTEX
  5
A66
  8
DEFAULT_3
 10
352.5843698944071
 20
169.0475095921071
 30
0.0
 42
-0.4005843090784145
  0
VERTEX
  5
A67
  8
DEFAULT_3
 10
351.3673640441453
 20
170.8289378969263
 30
0.0
 42
0.0028017183489534
  0
VERTEX
  5
A68
  8
DEFAULT_3
 10
351.483245836636
 20
171.5605863135403
 30
0.0
 42
-0.4005844735830687
  0
VERTEX
  5
A69
  8
DEFAULT_3
 10
353.1911811476188
 20
172.878748992556
 30
0.0
  0
VERTEX
  5
A6A
  8
DEFAULT_3
 10
353.455855572744
 20
172.8509313185748
 30
0.0
 42
0.1539513946072332
  0
VERTEX
  5
A6B
  8
DEFAULT_3
 10
356.9926357512193
 20
173.5707627316657
 30
0.0
 42
0.003570888439578
  0
VERTEX
  5
A6C
  8
DEFAULT_3
 10
357.0991604458961
 20
174.5835619751957
 30
0.0
 42
0.1547276818001085
  0
VERTEX
  5
A6D
  8
DEFAULT_3
 10
353.7756142731783
 20
176.0349613400076
 30
0.0
  0
VERTEX
  5
A6E
  8
DEFAULT_3
 10
353.5256739292482
 20
176.0612313350026
 30
0.0
 42
-0.4005843090783959
  0
VERTEX
  5
A6F
  8
DEFAULT_3
 10
352.1291226922548
 20
177.7056887894629
 30
0.0
 42
0.0028017183489689
  0
VERTEX
  5
A70
  8
DEFAULT_3
 10
352.1678915875204
 20
178.4454421051868
 30
0.0
 42
-0.4005836877874241
  0
VERTEX
  5
A71
  8
DEFAULT_3
 10
353.7286809330421
 20
179.9349115687471
 30
0.0
  0
VERTEX
  5
A72
  8
DEFAULT_3
 10
353.9948156719643
 20
179.9349115687471
 30
0.0
 42
0.1539514777245587
  0
VERTEX
  5
A73
  8
DEFAULT_3
 10
357.436979835811
 20
181.0204946278793
 30
0.0
 42
0.0035708884397104
  0
VERTEX
  5
A74
  8
DEFAULT_3
 10
357.4370546285397
 20
182.0388805138159
 30
0.0
 42
0.154727681800121
  0
VERTEX
  5
A75
  8
DEFAULT_3
 10
353.980002644313
 20
183.1349237870127
 30
0.0
  0
VERTEX
  5
A76
  8
DEFAULT_3
 10
353.728682726085
 20
183.1349238074725
 30
0.0
 42
-0.4005843090782275
  0
VERTEX
  5
A77
  8
DEFAULT_3
 10
352.1678921437144
 20
184.6243935819508
 30
0.0
 42
0.0028017183490495
  0
VERTEX
  5
A78
  8
DEFAULT_3
 10
352.1291233816256
 20
185.3641469046545
 30
0.0
 42
-0.4005844873915079
  0
VERTEX
  5
A79
  8
DEFAULT_3
 10
353.5256749635177
 20
187.0086041969296
 30
0.0
  0
VERTEX
  5
A7A
  8
DEFAULT_3
 10
353.7903493886429
 20
187.0364223365721
 30
0.0
 42
0.1539513997227994
  0
VERTEX
  5
A7B
  8
DEFAULT_3
 10
357.1001807301477
 20
188.475862717611
 30
0.0
 42
0.0035708884396134
  0
VERTEX
  5
A7C
  8
DEFAULT_3
 10
356.9938048014836
 20
189.488677597078
 30
0.0
 42
0.154727681800127
  0
VERTEX
  5
A7D
  8
DEFAULT_3
 10
353.4411231907216
 20
190.2173562991961
 30
0.0
  0
VERTEX
  5
A7E
  8
DEFAULT_3
 10
353.1911814800705
 20
190.1910865193666
 30
0.0
 42
-0.4005843090782559
  0
VERTEX
  5
A7F
  8
DEFAULT_3
 10
351.4832476323011
 20
191.509249496853
 30
0.0
 42
0.0028017183490812
  0
VERTEX
  5
A80
  8
DEFAULT_3
 10
351.367365971528
 20
192.2408979343295
 30
0.0
 42
-0.4005847014120747
  0
VERTEX
  5
A81
  8
DEFAULT_3
 10
352.5843760614829
 20
194.0223260541495
 30
0.0
  0
VERTEX
  5
A82
  8
DEFAULT_3
 10
352.8446844463783
 20
194.0776577909526
 30
0.0
 42
0.1539516653832063
  0
VERTEX
  5
A83
  8
DEFAULT_3
 10
355.9859284757107
 20
195.8551844279347
 30
0.0
 42
0.0035708884396721
  0
VERTEX
  5
A84
  8
DEFAULT_3
 10
355.7742673025888
 20
196.8513316891675
 30
0.0
 42
0.1547277470011045
  0
VERTEX
  5
A85
  8
DEFAULT_3
 10
352.1648785715537
 20
197.2046627421912
 30
0.0
  0
VERTEX
  5
A86
  8
DEFAULT_3
 10
351.9190539413169
 20
197.1524101226699
 30
0.0
 42
-0.4005843090782706
  0
VERTEX
  5
A87
  8
DEFAULT_3
 10
350.082690266553
 20
198.2848246120164
 30
0.0
 42
0.002801718349037
  0
VERTEX
  5
A88
  8
DEFAULT_3
 10
349.8909653308209
 20
199.0003520708772
 30
0.0
 42
-0.4005841190602399
  0
VERTEX
  5
A89
  8
DEFAULT_3
 10
350.9150958304839
 20
200.8992324342069
 30
0.0
  0
VERTEX
  5
A8A
  8
DEFAULT_3
 10
351.1681995039421
 20
200.9814719428357
 30
0.0
 42
0.1539515782078057
  0
VERTEX
  5
A8B
  8
DEFAULT_3
 10
354.1064310533719
 20
203.0776103659692
 30
0.0
 42
0.0035708884395987
  0
VERTEX
  5
A8C
  8
DEFAULT_3
 10
353.7918036398979
 20
204.0461760111165
 30
0.0
 42
0.1547276818001288
  0
VERTEX
  5
A8D
  8
DEFAULT_3
 10
350.1652558251397
 20
204.0202872946685
 30
0.0
  0
VERTEX
  5
A8E
  8
DEFAULT_3
 10
349.9262389785092
 20
203.9426254151668
 30
0.0
 42
-0.4005843090782317
  0
VERTEX
  5
A8F
  8
DEFAULT_3
 10
347.9815648460545
 20
204.876884308599
 30
0.0
 42
0.0028017183490279
  0
VERTEX
  5
A90
  8
DEFAULT_3
 10
347.7160972138803
 20
205.5684513202711
 30
0.0
 42
-0.4005843492272689
  0
VERTEX
  5
A91
  8
DEFAULT_3
 10
348.5361291711765
 20
207.5639816691216
 30
0.0
  0
VERTEX
  5
A92
  8
DEFAULT_3
 10
348.779252791925
 20
207.6722255666789
 30
0.0
 42
0.1539515281786086
  0
VERTEX
  5
A93
  8
DEFAULT_3
 10
351.4822806302005
 20
210.0640101217478
 30
0.0
 42
0.0035708884396469
  0
VERTEX
  5
A94
  8
DEFAULT_3
 10
351.0681341001564
 20
210.9943823429159
 30
0.0
 42
0.1547277139027947
  0
VERTEX
  5
A95
  8
DEFAULT_3
 10
347.4641582613426
 20
210.589558141404
 30
0.0
  0
VERTEX
  5
A96
  8
DEFAULT_3
 10
347.234568545044
 20
210.4873378625998
 30
0.0
 42
-0.4005843090782579
  0
VERTEX
  5
A97
  8
DEFAULT_3
 10
345.2028917406015
 20
211.2132046010877
 30
0.0
 42
0.0028017183490383
  0
VERTEX
  5
A98
  8
DEFAULT_3
 10
344.866589930916
 20
211.8732342126717
 30
0.0
 42
-0.4005843054764017
  0
VERTEX
  5
A99
  8
DEFAULT_3
 10
345.4735419397788
 20
213.9435487558183
 30
0.0
  0
VERTEX
  5
A9A
  8
DEFAULT_3
 10
345.7040181999641
 20
214.076612399989
 30
0.0
 42
0.1539515418152757
  0
VERTEX
  5
A9B
  8
DEFAULT_3
 10
348.1422279473717
 20
216.7378392375479
 30
0.0
 42
0.0035708884396029
  0
VERTEX
  5
A9C
  8
DEFAULT_3
 10
347.6330997768063
 20
217.6198246819889
 30
0.0
 42
0.1547276818001163
  0
VERTEX
  5
A9D
  8
DEFAULT_3
 10
344.091183299664
 20
216.8405000081113
 30
0.0
  0
VERTEX
  5
A9E
  8
DEFAULT_3
 10
343.8735363129961
 20
216.7148407915683
 30
0.0
 42
-0.4005843090782547
  0
VERTEX
  5
A9F
  8
DEFAULT_3
 10
341.777114674212
 20
217.2243634383981
 30
0.0
 42
0.0028017377012009
  0
VERTEX
  5
AA0
  8
DEFAULT_3
 10
341.3736642135001
 20
217.8456310367033
 30
0.0
 42
-0.4005844131685646
  0
VERTEX
  5
AA1
  8
DEFAULT_3
 10
341.7608878260093
 20
219.9680509735879
 30
0.0
  0
VERTEX
  5
AA2
  8
DEFAULT_3
 10
341.976190978809
 20
220.1244759132203
 30
0.0
 42
0.1539516163308745
  0
VERTEX
  5
AA3
  8
DEFAULT_3
 10
344.1228719987331
 20
223.0259871881788
 30
0.0
 42
0.0035708884395786
  0
VERTEX
  5
AA4
  8
DEFAULT_3
 10
343.5243403024253
 20
223.849922638796
 30
0.0
 42
0.1547276818001237
  0
VERTEX
  5
AA5
  8
DEFAULT_3
 10
340.0832884248886
 20
222.704636100646
 30
0.0
  0
VERTEX
  5
AA6
  8
DEFAULT_3
 10
339.8799670965967
 20
222.5569152012501
 30
0.0
 42
-0.4005843090782641
  0
VERTEX
  5
AA7
  8
DEFAULT_3
 10
337.7417718550194
 20
222.844510649583
 30
0.0
 42
0.0028017183425103
  0
VERTEX
  5
AA8
  8
DEFAULT_3
 10
337.2755907093955
 20
223.420195569723
 30
0.0
 42
-0.4005844159340331
  0
VERTEX
  5
AA9
  8
DEFAULT_3
 10
337.4388358240562
 20
225.5714612771806
 30
0.0
  0
VERTEX
  5
AAA
  8
DEFAULT_3
 10
337.6366077607113
 20
225.7495376040277
 30
0.0
 42
0.153951521683894
  0
VERTEX
  5
AAB
  8
DEFAULT_3
 10
339.4682394542913
 20
228.8595403601664
 30
0.0
 42
0.0035708884396548
  0
VERTEX
  5
AAC
  8
DEFAULT_3
 10
338.7868618707566
 20
229.6163986077433
 30
0.0
 42
0.1547276314512875
  0
VERTEX
  5
AAD
  8
DEFAULT_3
 10
335.4843771701293
 20
228.1176971961793
 30
0.0
  0
VERTEX
  5
AAE
  8
DEFAULT_3
 10
335.297609727009
 20
227.9495337108108
 30
0.0
 42
-0.4005843090782435
  0
VERTEX
  5
AAF
  8
DEFAULT_3
 10
333.1410651085289
 20
228.0120513770577
 30
0.0
 42
0.0028017183424453
  0
VERTEX
  5
AB0
  8
DEFAULT_3
 10
332.6172622919695
 20
228.535853436214
 30
0.0
 42
-0.4005844122941501
  0
VERTEX
  5
AB1
  8
DEFAULT_3
 10
332.5547455494838
 20
230.6923980583485
 30
0.0
  0
VERTEX
  5
AB2
  8
DEFAULT_3
 10
332.7328181510406
 20
230.8901699950036
 30
0.0
 42
0.1539516067880403
  0
VERTEX
  5
AB3
  8
DEFAULT_3
 10
334.2293331254923
 20
234.174595130557
 30
0.0
 42
0.0035708884395699
  0
VERTEX
  5
AB4
  8
DEFAULT_3
 10
333.4725749701232
 20
234.8560838777503
 30
0.0
 42
0.1547276818001294
  0
VERTEX
  5
AB5
  8
DEFAULT_3
 10
330.3448367927276
 20
233.0203896842559
 30
0.0
  0
VERTEX
  5
AB6
  8
DEFAULT_3
 10
330.1766725515408
 20
232.8336240306823
 30
0.0
 42
-0.4005843090782479
  0
VERTEX
  5
AB7
  8
DEFAULT_3
 10
328.0254064238597
 20
232.6703789695829
 30
0.0
 42
0.002801718342486
  0
VERTEX
  5
AB8
  8
DEFAULT_3
 10
327.4497208296358
 20
233.1365592827825
 30
0.0
 42
-0.4005843521643908
  0
VERTEX
  5
AB9
  8
DEFAULT_3
 10
327.162123346849
 20
235.2747547199067
 30
0.0
  0
VERTEX
  5
ABA
  8
DEFAULT_3
 10
327.3185520117718
 20
235.4900578727063
 30
0.0
 42
0.1539515716001316
  0
VERTEX
  5
ABB
  8
DEFAULT_3
 10
328.4635515663858
 20
238.9129186470394
 30
0.0
 42
0.0035708884396408
  0
VERTEX
  5
ABC
  8
DEFAULT_3
 10
327.6397040398944
 20
239.5115713605243
 30
0.0
 42
0.1547276818001151
  0
VERTEX
  5
ABD
  8
DEFAULT_3
 10
324.7209822325706
 20
237.3589956267069
 30
0.0
  0
VERTEX
  5
ABE
  8
DEFAULT_3
 10
324.5732626562553
 20
237.1556761433419
 30
0.0
 42
-0.4005847436780296
  0
VERTEX
  5
ABF
  8
DEFAULT_3
 10
322.4508440280813
 20
236.7684558152371
 30
0.0
 42
0.0028017183170349
  0
VERTEX
  5
AC0
  8
DEFAULT_3
 10
321.8295826628521
 20
237.1719063064832
 30
0.0
 42
-0.400583952546944
  0
VERTEX
  5
AC1
  8
DEFAULT_3
 10
321.320059770866
 20
239.2683255245026
 30
0.0
  0
VERTEX
  5
AC2
  8
DEFAULT_3
 10
321.4531271403271
 20
239.4988017846879
 30
0.0
 42
0.1539515536061997
  0
VERTEX
  5
AC3
  8
DEFAULT_3
 10
322.2340658863009
 20
243.0225968456091
 30
0.0
 42
0.0035708884396111
  0
VERTEX
  5
AC4
  8
DEFAULT_3
 10
321.3521552345886
 20
243.5318545609806
 30
0.0
 42
0.1547276818001117
  0
VERTEX
  5
AC5
  8
DEFAULT_3
 10
318.6744279242394
 20
241.0859813570355
 30
0.0
  0
VERTEX
  5
AC6
  8
DEFAULT_3
 10
318.5487683753565
 20
240.8683337292977
 30
0.0
 42
-0.4005843090782826
  0
VERTEX
  5
AC7
  8
DEFAULT_3
 10
316.4784539933541
 20
240.2613825265216
 30
0.0
 42
0.0028017183424695
  0
VERTEX
  5
AC8
  8
DEFAULT_3
 10
315.8184241734436
 20
240.5976839161126
 30
0.0
 42
-0.4005844276086494
  0
VERTEX
  5
AC9
  8
DEFAULT_3
 10
315.0925571715074
 20
242.6293606628712
 30
0.0
  0
VERTEX
  5
ACA
  8
DEFAULT_3
 10
315.2008029317099
 20
242.8724805583295
 30
0.0
 42
0.1539516027772799
  0
VERTEX
  5
ACB
  8
DEFAULT_3
 10
315.6091276339524
 20
246.4586032319173
 30
0.0
 42
0.0035708884396436
  0
VERTEX
  5
ACC
  8
DEFAULT_3
 10
314.678816254671
 20
246.8728864150766
 30
0.0
 42
0.1547277698438443
  0
VERTEX
  5
ACD
  8
DEFAULT_3
 10
312.2714209055143
 20
244.1605108548936
 30
0.0
  0
VERTEX
  5
ACE
  8
DEFAULT_3
 10
312.1692008469233
 20
243.9309219608856
 30
0.0
 42
-0.4005843090782527
  0
VERTEX
  5
ACF
  8
DEFAULT_3
 10
310.1736710747016
 20
243.1108898674456
 30
0.0
 42
0.0028017183425132
  0
VERTEX
  5
AD0
  8
DEFAULT_3
 10
309.4821038997559
 20
243.3763570600506
 30
0.0
 42
-0.4005838402665895
  0
VERTEX
  5
AD1
  8
DEFAULT_3
 10
308.5478461032348
 20
245.3210281898316
 30
0.0
  0
VERTEX
  5
AD2
  8
DEFAULT_3
 10
308.6300837492185
 20
245.5741318632898
 30
0.0
 42
0.1539516598880271
  0
VERTEX
  5
AD3
  8
DEFAULT_3
 10
308.6613210191902
 20
249.1832922009649
 30
0.0
 42
0.0035708884396069
  0
VERTEX
  5
AD4
  8
DEFAULT_3
 10
307.6928015984913
 20
249.498061878663
 30
0.0
 42
0.1547276818001245
  0
VERTEX
  5
AD5
  8
DEFAULT_3
 10
305.582114687812
 20
246.5489060598814
 30
0.0
  0
VERTEX
  5
AD6
  8
DEFAULT_3
 10
305.5044532731176
 20
246.3098899588291
 30
0.0
 42
-0.4005843090782834
  0
VERTEX
  5
AD7
  8
DEFAULT_3
 10
303.6055717931409
 20
245.2857580392843
 30
0.0
 42
0.0028017183424617
  0
VERTEX
  5
AD8
  8
DEFAULT_3
 10
302.8900442178486
 20
245.4774825207884
 30
0.0
 42
-0.4005836143984114
  0
VERTEX
  5
AD9
  8
DEFAULT_3
 10
301.7576300223904
 20
247.3138424326714
 30
0.0
  0
VERTEX
  5
ADA
  8
DEFAULT_3
 10
301.8129608278709
 20
247.5741582681474
 30
0.0
 42
0.1539516150916927
  0
VERTEX
  5
ADB
  8
DEFAULT_3
 10
301.4667676652078
 20
251.1668114902293
 30
0.0
 42
0.0035708884395653
  0
VERTEX
  5
ADC
  8
DEFAULT_3
 10
300.4706515045404
 20
251.3786189800075
 30
0.0
 42
0.1547278063770382
  0
VERTEX
  5
ADD
  8
DEFAULT_3
 10
298.6797979717689
 20
248.2249888350304
 30
0.0
  0
VERTEX
  5
ADE
  8
DEFAULT_3
 10
298.6275461187201
 20
247.9791643788155
 30
0.0
 42
-0.4005841387950345
  0
VERTEX
  5
ADF
  8
DEFAULT_3
 10
296.8461176188644
 20
246.7621587312265
 30
0.0
 42
0.0028017183169562
  0
VERTEX
  5
AE0
  8
DEFAULT_3
 10
296.1144690221937
 20
246.878039332722
 30
0.0
 42
-0.4005850250205866
  0
VERTEX
  5
AE1
  8
DEFAULT_3
 10
294.7963057702022
 20
248.585976915532
 30
0.0
  0
VERTEX
  5
AE2
  8
DEFAULT_3
 10
294.824124375506
 20
248.8506438900766
 30
0.0
 42
0.1539516247706118
  0
VERTEX
  5
AE3
  8
DEFAULT_3
 10
294.1042926041085
 20
252.3874292472991
 30
0.0
 42
0.0035708884395843
  0
VERTEX
  5
AE4
  8
DEFAULT_3
 10
293.0914933605795
 20
252.4939539419758
 30
0.0
 42
0.1547276818001276
  0
VERTEX
  5
AE5
  8
DEFAULT_3
 10
291.6400939957662
 20
249.1704077692582
 30
0.0
  0
VERTEX
  5
AE6
  8
DEFAULT_3
 10
291.6138242615002
 20
248.9204632808503
 30
0.0
 42
-0.4005836108643582
  0
VERTEX
  5
AE7
  8
DEFAULT_3
 10
289.9693664765379
 20
247.5239149859251
 30
0.0
 42
0.0028017182912353
  0
VERTEX
  5
AE8
  8
DEFAULT_3
 10
289.2296131760521
 20
247.5626838803065
 30
0.0
 42
-0.4005843423894889
  0
VERTEX
  5
AE9
  8
DEFAULT_3
 10
287.7401436596724
 20
249.1234767009553
 30
0.0
  0
VERTEX
  5
AEA
  8
DEFAULT_3
 10
287.7401436596724
 20
249.3896039892969
 30
0.0
 42
0.1539516465838743
  0
VERTEX
  5
AEB
  8
DEFAULT_3
 10
286.6545606533598
 20
252.8317721285972
 30
0.0
 42
0.0035708884395982
  0
VERTEX
  5
AEC
  8
DEFAULT_3
 10
285.636174767423
 20
252.8318469213259
 30
0.0
 42
0.1547276818001241
  0
VERTEX
  5
AED
  8
DEFAULT_3
 10
284.5401314942258
 20
249.3747949370992
 30
0.0
  0
VERTEX
  5
AEE
  8
DEFAULT_3
 10
284.5401315055641
 20
249.1234767564347
 30
0.0
 42
-0.4005843090782344
  0
VERTEX
  5
AEF
  8
DEFAULT_3
 10
283.0506616992877
 20
247.5626844365006
 30
0.0
 42
0.0028017183425425
  0
VERTEX
  5
AF0
  8
DEFAULT_3
 10
282.3109084131945
 20
247.5239150732592
 30
0.0
 42
-0.4005840510077624
  0
VERTEX
  5
AF1
  8
DEFAULT_3
 10
280.6664510314899
 20
248.9204632808503
 30
0.0
  0
VERTEX
  5
AF2
  8
DEFAULT_3
 10
280.6386328918474
 20
249.1851377059754
 30
0.0
 42
0.1539515112395966
  0
VERTEX
  5
AF3
  8
DEFAULT_3
 10
279.1991926351685
 20
252.4949718205314
 30
0.0
 42
0.0035708884395824
  0
VERTEX
  5
AF4
  8
DEFAULT_3
 10
278.1863777557014
 20
252.3885958918673
 30
0.0
 42
0.154727681800127
  0
VERTEX
  5
AF5
  8
DEFAULT_3
 10
277.4576990535832
 20
248.8359142811053
 30
0.0
  0
VERTEX
  5
AF6
  8
DEFAULT_3
 10
277.4839690040633
 20
248.5859711839286
 30
0.0
 42
-0.4005843090782703
  0
VERTEX
  5
AF7
  8
DEFAULT_3
 10
276.1658058559263
 20
246.8780387226849
 30
0.0
 42
0.0028017183424569
  0
VERTEX
  5
AF8
  8
DEFAULT_3
 10
275.4341575176975
 20
246.7621564678793
 30
0.0
 42
-0.4005844413574318
  0
VERTEX
  5
AF9
  8
DEFAULT_3
 10
273.6527296399312
 20
247.9791643788155
 30
0.0
  0
VERTEX
  5
AFA
  8
DEFAULT_3
 10
273.5973979031282
 20
248.2394802142915
 30
0.0
 42
0.1539514402349862
  0
VERTEX
  5
AFB
  8
DEFAULT_3
 10
271.8198711216791
 20
251.3807183777569
 30
0.0
 42
0.0035708884395959
  0
VERTEX
  5
AFC
  8
DEFAULT_3
 10
270.8237238604462
 20
251.169057204635
 30
0.0
 42
0.1547276818001218
  0
VERTEX
  5
AFD
  8
DEFAULT_3
 10
270.4703932857533
 20
247.5596698905117
 30
0.0
  0
VERTEX
  5
AFE
  8
DEFAULT_3
 10
270.522645033516
 20
247.3138430510062
 30
0.0
 42
-0.400584309078235
  0
VERTEX
  5
AFF
  8
DEFAULT_3
 10
269.3902309375972
 20
245.4774801685992
 30
0.0
 42
0.0028017183424432
  0
VERTEX
  5
B00
  8
DEFAULT_3
 10
268.6747036395336
 20
245.285754652463
 30
0.0
 42
-0.4005841071067802
  0
VERTEX
  5
B01
  8
DEFAULT_3
 10
266.7758232598739
 20
246.3098841478165
 30
0.0
  0
VERTEX
  5
B02
  8
DEFAULT_3
 10
266.6935837512451
 20
246.5629878212746
 30
0.0
 42
0.1539515890671696
  0
VERTEX
  5
B03
  8
DEFAULT_3
 10
264.5974455036156
 20
249.5012197941651
 30
0.0
 42
0.0035708884396601
  0
VERTEX
  5
B04
  8
DEFAULT_3
 10
263.6288798584682
 20
249.1865923806912
 30
0.0
 42
0.1547277604305315
  0
VERTEX
  5
B05
  8
DEFAULT_3
 10
263.6547694598871
 20
245.5600428153809
 30
0.0
  0
VERTEX
  5
B06
  8
DEFAULT_3
 10
263.7324305867391
 20
245.3210281898316
 30
0.0
 42
-0.4005846736674317
  0
VERTEX
  5
B07
  8
DEFAULT_3
 10
262.7981715609857
 20
243.3763535868478
 30
0.0
 42
0.0028017183170085
  0
VERTEX
  5
B08
  8
DEFAULT_3
 10
262.106604988878
 20
243.1108848332134
 30
0.0
 42
-0.4005841211541057
  0
VERTEX
  5
B09
  8
DEFAULT_3
 10
260.1110758876043
 20
243.9309174885091
 30
0.0
  0
VERTEX
  5
B0A
  8
DEFAULT_3
 10
260.0028301274019
 20
244.1740411092576
 30
0.0
 42
0.1539514865689194
  0
VERTEX
  5
B0B
  8
DEFAULT_3
 10
257.6110461874393
 20
246.8770682495484
 30
0.0
 42
0.0035708884396468
  0
VERTEX
  5
B0C
  8
DEFAULT_3
 10
256.6806739662711
 20
246.4629217195044
 30
0.0
 42
0.1547276818001394
  0
VERTEX
  5
B0D
  8
DEFAULT_3
 10
257.085498331665
 20
242.8589466208736
 30
0.0
  0
VERTEX
  5
B0E
  8
DEFAULT_3
 10
257.1877195184665
 20
242.629356937581
 30
0.0
 42
-0.4005845915174331
  0
VERTEX
  5
B0F
  8
DEFAULT_3
 10
256.4618517080992
 20
240.5976793599495
 30
0.0
 42
0.0028017183169189
  0
VERTEX
  5
B10
  8
DEFAULT_3
 10
255.8018226508962
 20
240.2613764808942
 30
0.0
 42
-0.4005844521369015
  0
VERTEX
  5
B11
  8
DEFAULT_3
 10
253.7315069382625
 20
240.8683265318211
 30
0.0
  0
VERTEX
  5
B12
  8
DEFAULT_3
 10
253.5984432940918
 20
241.0988027920064
 30
0.0
 42
0.1539515624045344
  0
VERTEX
  5
B13
  8
DEFAULT_3
 10
250.9372176260563
 20
243.5370144973685
 30
0.0
 42
0.0035708884396063
  0
VERTEX
  5
B14
  8
DEFAULT_3
 10
250.0552321816152
 20
243.0278863268033
 30
0.0
 42
0.1547276818001185
  0
VERTEX
  5
B15
  8
DEFAULT_3
 10
250.8345568554927
 20
239.4859698496608
 30
0.0
  0
VERTEX
  5
B16
  8
DEFAULT_3
 10
250.9602154872741
 20
239.2683218840157
 30
0.0
 42
-0.4005843090782572
  0
VERTEX
  5
B17
  8
DEFAULT_3
 10
250.450693425206
 20
237.171901224209
 30
0.0
 42
0.0028017183424718
  0
VERTEX
  5
B18
  8
DEFAULT_3
 10
249.829432968537
 20
236.7684493277068
 30
0.0
 42
-0.4005844131611134
  0
VERTEX
  5
B19
  8
DEFAULT_3
 10
247.7070158963638
 20
237.1556686927613
 30
0.0
  0
VERTEX
  5
B1A
  8
DEFAULT_3
 10
247.5505909567314
 20
237.3709718455609
 30
0.0
 42
0.1539516163308484
  0
VERTEX
  5
B1B
  8
DEFAULT_3
 10
244.6490796817735
 20
239.5176528654855
 30
0.0
 42
0.0035708884396112
  0
VERTEX
  5
B1C
  8
DEFAULT_3
 10
243.8251442311562
 20
238.9191211691777
 30
0.0
 42
0.1547276818001201
  0
VERTEX
  5
B1D
  8
DEFAULT_3
 10
244.9704307693062
 20
235.4780692916409
 30
0.0
  0
VERTEX
  5
B1E
  8
DEFAULT_3
 10
245.1181516687018
 20
235.2747479633489
 30
0.0
 42
-0.4005843090782538
  0
VERTEX
  5
B1F
  8
DEFAULT_3
 10
244.8305562203693
 20
233.1365527217717
 30
0.0
 42
0.0028017183425103
  0
VERTEX
  5
B20
  8
DEFAULT_3
 10
244.2548713002292
 20
232.6703715761479
 30
0.0
 42
-0.4005844159341281
  0
VERTEX
  5
B21
  8
DEFAULT_3
 10
242.1036055927711
 20
232.8336166908082
 30
0.0
  0
VERTEX
  5
B22
  8
DEFAULT_3
 10
241.925529265924
 20
233.0313886274632
 30
0.0
 42
0.1539515216838647
  0
VERTEX
  5
B23
  8
DEFAULT_3
 10
238.815526509786
 20
234.8630203210438
 30
0.0
 42
0.0035708884396502
  0
VERTEX
  5
B24
  8
DEFAULT_3
 10
238.0586682622089
 20
234.1816427375089
 30
0.0
 42
0.1547276818001213
  0
VERTEX
  5
B25
  8
DEFAULT_3
 10
239.5573686656528
 20
230.8791563440345
 30
0.0
  0
VERTEX
  5
B26
  8
DEFAULT_3
 10
239.7255331591411
 20
230.6923905937613
 30
0.0
 42
-0.4005843090782344
  0
VERTEX
  5
B27
  8
DEFAULT_3
 10
239.6630154928944
 20
228.5358459752814
 30
0.0
 42
0.0028017183424455
  0
VERTEX
  5
B28
  8
DEFAULT_3
 10
239.1392134337382
 20
228.012043158722
 30
0.0
 42
-0.400584412294245
  0
VERTEX
  5
B29
  8
DEFAULT_3
 10
236.9826688116032
 20
227.9495264162358
 30
0.0
  0
VERTEX
  5
B2A
  8
DEFAULT_3
 10
236.7848968749481
 20
228.1275990177926
 30
0.0
 42
0.1539516067880136
  0
VERTEX
  5
B2B
  8
DEFAULT_3
 10
233.5004717393954
 20
229.6241139922448
 30
0.0
 42
0.0035708884396295
  0
VERTEX
  5
B2C
  8
DEFAULT_3
 10
232.8189829922018
 20
228.8673558368756
 30
0.0
 42
0.1547276818001356
  0
VERTEX
  5
B2D
  8
DEFAULT_3
 10
234.6546771856963
 20
225.73961765948
 30
0.0
  0
VERTEX
  5
B2E
  8
DEFAULT_3
 10
234.8414428392696
 20
225.571453418293
 30
0.0
 42
-0.4005843090782627
  0
VERTEX
  5
B2F
  8
DEFAULT_3
 10
235.0046879003692
 20
223.4201872906122
 30
0.0
 42
0.0028017183424973
  0
VERTEX
  5
B30
  8
DEFAULT_3
 10
234.5385075871695
 20
222.8445016963882
 30
0.0
 42
-0.4005843521644963
  0
VERTEX
  5
B31
  8
DEFAULT_3
 10
232.400312150045
 20
222.556904213601
 30
0.0
  0
VERTEX
  5
B32
  8
DEFAULT_3
 10
232.1850089972454
 20
222.7133328785237
 30
0.0
 42
0.1539515716001255
  0
VERTEX
  5
B33
  8
DEFAULT_3
 10
228.7621482229128
 20
223.8583324331384
 30
0.0
 42
0.0035708884396589
  0
VERTEX
  5
B34
  8
DEFAULT_3
 10
228.1634955094278
 20
223.0344849066469
 30
0.0
 42
0.15472768180013
  0
VERTEX
  5
B35
  8
DEFAULT_3
 10
230.3160712432452
 20
220.115763099323
 30
0.0
  0
VERTEX
  5
B36
  8
DEFAULT_3
 10
230.519391302062
 20
219.9680427673564
 30
0.0
 42
-0.4005843090782614
  0
VERTEX
  5
B37
  8
DEFAULT_3
 10
230.9066110547149
 20
217.8456248948339
 30
0.0
 42
0.0028017183424626
  0
VERTEX
  5
B38
  8
DEFAULT_3
 10
230.5031600565378
 20
217.2243638547857
 30
0.0
 42
-0.4005839525470525
  0
VERTEX
  5
B39
  8
DEFAULT_3
 10
228.4067413454491
 20
216.714840637618
 30
0.0
  0
VERTEX
  5
B3A
  8
DEFAULT_3
 10
228.1762650852638
 20
216.847908007079
 30
0.0
 42
0.1539515536061832
  0
VERTEX
  5
B3B
  8
DEFAULT_3
 10
224.6524700243429
 20
217.6288467530536
 30
0.0
 42
0.003570888439573
  0
VERTEX
  5
B3C
  8
DEFAULT_3
 10
224.1432123089714
 20
216.7469361013412
 30
0.0
 42
0.1547276818001262
  0
VERTEX
  5
B3D
  8
DEFAULT_3
 10
226.5890855129167
 20
214.069208790992
 30
0.0
  0
VERTEX
  5
B3E
  8
DEFAULT_3
 10
226.8067331406542
 20
213.9435492421089
 30
0.0
 42
-0.4005843090782516
  0
VERTEX
  5
B3F
  8
DEFAULT_3
 10
227.4136843434304
 20
211.8732348601067
 30
0.0
 42
0.0028016952437566
  0
VERTEX
  5
B40
  8
DEFAULT_3
 10
227.0773808742914
 20
211.2132130008636
 30
0.0
 42
-0.4005844989462594
  0
VERTEX
  5
B41
  8
DEFAULT_3
 10
225.0456987564999
 20
210.4873492141303
 30
0.0
  0
VERTEX
  5
B42
  8
DEFAULT_3
 10
224.8025788610416
 20
210.5955931116875
 30
0.0
 42
0.1539515841883573
  0
VERTEX
  5
B43
  8
DEFAULT_3
 10
221.2164567368236
 20
211.0039189649583
 30
0.0
 42
0.0035708884396178
  0
VERTEX
  5
B44
  8
DEFAULT_3
 10
220.8021735536644
 20
210.0736075856768
 30
0.0
 42
0.1547276818001249
  0
VERTEX
  5
B45
  8
DEFAULT_3
 10
223.514546729083
 20
207.6662125130649
 30
0.0
  0
VERTEX
  5
B46
  8
DEFAULT_3
 10
223.7441382055717
 20
207.5639928449925
 30
0.0
 42
-0.400584364689117
  0
VERTEX
  5
B47
  8
DEFAULT_3
 10
224.5641701012952
 20
205.5684624057075
 30
0.0
 42
0.0028017183490339
  0
VERTEX
  5
B48
  8
DEFAULT_3
 10
224.2987023446193
 20
204.8768954418272
 30
0.0
 42
-0.4005838815351146
  0
VERTEX
  5
B49
  8
DEFAULT_3
 10
222.3540312295395
 20
203.9426362832126
 30
0.0
  0
VERTEX
  5
B4A
  8
DEFAULT_3
 10
222.1009275560814
 20
204.0248757918414
 30
0.0
 42
0.1539516856347418
  0
VERTEX
  5
B4B
  8
DEFAULT_3
 10
218.4917666402283
 20
204.0561127739015
 30
0.0
 42
0.0035708884396416
  0
VERTEX
  5
B4C
  8
DEFAULT_3
 10
218.1769969625302
 20
203.0875933532025
 30
0.0
 42
0.1547276818001339
  0
VERTEX
  5
B4D
  8
DEFAULT_3
 10
221.1261527813119
 20
200.9769064425232
 30
0.0
  0
VERTEX
  5
B4E
  8
DEFAULT_3
 10
221.365169171453
 20
200.8992451717847
 30
0.0
 42
-0.4005843090782463
  0
VERTEX
  5
B4F
  8
DEFAULT_3
 10
222.3893008019088
 20
199.0003635478523
 30
0.0
 42
0.0028017183490153
  0
VERTEX
  5
B50
  8
DEFAULT_3
 10
222.1975757373613
 20
198.2848361235074
 30
0.0
 42
-0.4005848631885734
  0
VERTEX
  5
B51
  8
DEFAULT_3
 10
220.3612095361191
 20
197.1524220650133
 30
0.0
  0
VERTEX
  5
B52
  8
DEFAULT_3
 10
220.1009011512237
 20
197.2077528704938
 30
0.0
 42
0.1539516926586184
  0
VERTEX
  5
B53
  8
DEFAULT_3
 10
216.5082461853037
 20
196.8615597234425
 30
0.0
 42
0.0035708884396315
  0
VERTEX
  5
B54
  8
DEFAULT_3
 10
216.2964386955255
 20
195.8654435627749
 30
0.0
 42
0.1547276818001148
  0
VERTEX
  5
B55
  8
DEFAULT_3
 10
219.4500655893691
 20
194.0745899415112
 30
0.0
  0
VERTEX
  5
B56
  8
DEFAULT_3
 10
219.6958934255476
 20
194.0223380632569
 30
0.0
 42
-0.4005843090782401
  0
VERTEX
  5
B57
  8
DEFAULT_3
 10
220.9128989443064
 20
192.240909677099
 30
0.0
 42
0.0028017183489913
  0
VERTEX
  5
B58
  8
DEFAULT_3
 10
220.7970171518157
 20
191.5092612604845
 30
0.0
 42
-0.4005843133640384
  0
VERTEX
  5
B59
  8
DEFAULT_3
 10
219.0890825038391
 20
190.1910987441477
 30
0.0
  0
VERTEX
  5
B5A
  8
DEFAULT_3
 10
218.824408078714
 20
190.2189164181289
 30
0.0
 42
0.1539514251156752
  0
VERTEX
  5
B5B
  8
DEFAULT_3
 10
215.2876272372325
 20
189.4990848423592
 30
0.0
 42
0.0035708884396338
  0
VERTEX
  5
B5C
  8
DEFAULT_3
 10
215.1811025425557
 20
188.48628559883
 30
0.0
 42
0.1547276818001166
  0
VERTEX
  5
B5D
  8
DEFAULT_3
 10
218.5046487152734
 20
187.0348862340167
 30
0.0
  0
VERTEX
  5
B5E
  8
DEFAULT_3
 10
218.7545893907065
 20
187.0086163203614
 30
0.0
 42
-0.4005843090782522
  0
VERTEX
  5
B5F
  8
DEFAULT_3
 10
220.1511402961969
 20
185.3641587845623
 30
0.0
 42
0.0028017183491243
  0
VERTEX
  5
B60
  8
DEFAULT_3
 10
220.1123714009312
 20
184.6244054688379
 30
0.0
 42
-0.4005835771142772
  0
VERTEX
  5
B61
  8
DEFAULT_3
 10
218.5515827184158
 20
183.1349359351259
 30
0.0
  0
VERTEX
  5
B62
  8
DEFAULT_3
 10
218.2854479794937
 20
183.1349359351259
 30
0.0
 42
0.1539515050608722
  0
VERTEX
  5
B63
  8
DEFAULT_3
 10
214.8432831526406
 20
182.0493529461457
 30
0.0
 42
0.0035708884396263
  0
VERTEX
  5
B64
  8
DEFAULT_3
 10
214.8432083599119
 20
181.0309670602089
 30
0.0
 42
0.1547276818001248
  0
VERTEX
  5
B65
  8
DEFAULT_3
 10
218.3002603441386
 20
179.9349237870117
 30
0.0
  0
VERTEX
  5
B66
  8
DEFAULT_3
 10
218.5515768685794
 20
179.9349237896838
 30
0.0
 42
-0.4005843090784265
  0
VERTEX
  5
B67
  8
DEFAULT_3
 10
220.1123708447371
 20
178.4454539920727
 30
0.0
 42
0.0028017183490091
  0
VERTEX
  5
B68
  8
DEFAULT_3
 10
220.1511396068261
 20
177.7057006693693
 30
0.0
 42
-0.4005843454173913
  0
VERTEX
  5
B69
  8
DEFAULT_3
 10
218.7545886879402
 20
176.0612435397741
 30
0.0
  0
VERTEX
  5
B6A
  8
DEFAULT_3
 10
218.4899142628151
 20
176.0334254001316
 30
0.0
 42
0.1539514298173249
  0
VERTEX
  5
B6B
  8
DEFAULT_3
 10
215.1800822583039
 20
174.593984856413
 30
0.0
 42
0.0035708884396375
  0
VERTEX
  5
B6C
  8
DEFAULT_3
 10
215.2864581869681
 20
173.5811699769449
 30
0.0
 42
0.1547276818001161
  0
VERTEX
  5
B6D
  8
DEFAULT_3
 10
218.83913979773
 20
172.8524912748283
 30
0.0
  0
VERTEX
  5
B6E
  8
DEFAULT_3
 10
219.0890818398842
 20
172.8787611359973
 30
0.0
 42
-0.4005843090784194
  0
VERTEX
  5
B6F
  8
DEFAULT_3
 10
220.7970153561505
 20
171.5605980771704
 30
0.0
 42
0.0028017183490313
  0
VERTEX
  5
B70
  8
DEFAULT_3
 10
220.9128970169235
 20
170.8289496396944
 30
0.0
 42
-0.4005845709480749
  0
VERTEX
  5
B71
  8
DEFAULT_3
 10
219.695887589975
 20
169.0475216825541
 30
0.0
  0
VERTEX
  5
B72
  8
DEFAULT_3
 10
219.435571754499
 20
168.9921899457511
 30
0.0
 42
0.1539514047584646
  0
VERTEX
  5
B73
  8
DEFAULT_3
 10
216.2943345127409
 20
167.2146631460893
 30
0.0
 42
0.0035708884395924
  0
VERTEX
  5
B74
  8
DEFAULT_3
 10
216.505995685863
 20
166.2185158848554
 30
0.0
 42
0.154727681800113
  0
VERTEX
  5
B75
  8
DEFAULT_3
 10
220.115382999986
 20
165.8651853101641
 30
0.0
  0
VERTEX
  5
B76
  8
DEFAULT_3
 10
220.3612093786379
 20
165.9174370670328
 30
0.0
 42
-0.4005843090784133
  0
VERTEX
  5
B77
  8
DEFAULT_3
 10
222.1975727218987
 20
164.785022962007
 30
0.0
 42
0.00280171834898
  0
VERTEX
  5
B78
  8
DEFAULT_3
 10
222.3892976576307
 20
164.0694955031466
 30
0.0
 42
-0.4005840015361936
  0
VERTEX
  5
B79
  8
DEFAULT_3
 10
221.365167820974
 20
162.1706153024968
 30
0.0
  0
VERTEX
  5
B7A
  8
DEFAULT_3
 10
221.1120641475158
 20
162.088375793868
 30
0.0
 42
0.1539516065731486
  0
VERTEX
  5
B7B
  8
DEFAULT_3
 10
218.1738319350797
 20
159.9922372080547
 30
0.0
 42
0.0035708884395957
  0
VERTEX
  5
B7C
  8
DEFAULT_3
 10
218.488459348554
 20
159.0236715629064
 30
0.0
 42
0.1547276818001203
  0
VERTEX
  5
B7D
  8
DEFAULT_3
 10
222.1150071633119
 20
159.0495602793558
 30
0.0
  0
VERTEX
  5
B7E
  8
DEFAULT_3
 10
222.3540243414455
 20
159.1272222401972
 30
0.0
 42
-0.4005843090784494
  0
VERTEX
  5
B7F
  8
DEFAULT_3
 10
224.2986981423973
 20
158.1929632654244
 30
0.0
 42
0.0028017183490006
  0
VERTEX
  5
B80
  8
DEFAULT_3
 10
224.5641657745712
 20
157.5013962537528
 30
0.0
 42
-0.4005842459304845
  0
VERTEX
  5
B81
  8
DEFAULT_3
 10
223.7441344802814
 20
155.505866067582
 30
0.0
  0
VERTEX
  5
B82
  8
DEFAULT_3
 10
223.5010108595329
 20
155.3976221700248
 30
0.0
 42
0.1539515552075802
  0
VERTEX
  5
B83
  8
DEFAULT_3
 10
220.7979823582511
 20
153.0058374522761
 30
0.0
 42
0.0035708884396292
  0
VERTEX
  5
B84
  8
DEFAULT_3
 10
221.2121288882956
 20
152.075465231107
 30
0.0
 42
0.1547276818001053
  0
VERTEX
  5
B85
  8
DEFAULT_3
 10
224.8161039869258
 20
152.4802895965022
 30
0.0
  0
VERTEX
  5
B86
  8
DEFAULT_3
 10
225.0456947749107
 20
152.5825097927642
 30
0.0
 42
-0.400584309078433
  0
VERTEX
  5
B87
  8
DEFAULT_3
 10
227.0773712478503
 20
151.8566429729357
 30
0.0
 42
0.0028017183489525
  0
VERTEX
  5
B88
  8
DEFAULT_3
 10
227.4136730575356
 20
151.1966133613522
 30
0.0
 42
-0.40058421753851
  0
VERTEX
  5
B89
  8
DEFAULT_3
 10
226.8067217116791
 20
149.1262989808854
 30
0.0
  0
VERTEX
  5
B8A
  8
DEFAULT_3
 10
226.5762454514938
 20
148.9932353367146
 30
0.0
 42
0.1539515672117185
  0
VERTEX
  5
B8B
  8
DEFAULT_3
 10
224.13803504108
 20
146.3320083364761
 30
0.0
 42
0.0035708884396376
  0
VERTEX
  5
B8C
  8
DEFAULT_3
 10
224.6471632116458
 20
145.4500228920342
 30
0.0
 42
0.154727681800116
  0
VERTEX
  5
B8D
  8
DEFAULT_3
 10
228.1890796887875
 20
146.229347565913
 30
0.0
  0
VERTEX
  5
B8E
  8
DEFAULT_3
 10
228.4067270069585
 20
146.3550068637956
 30
0.0
 42
-0.4005843090784084
  0
VERTEX
  5
B8F
  8
DEFAULT_3
 10
230.5031483142398
 20
145.8454841356255
 30
0.0
 42
0.0028017183489672
  0
VERTEX
  5
B90
  8
DEFAULT_3
 10
230.9065997084338
 20
145.2242233466748
 30
0.0
 42
-0.400583922698141
  0
VERTEX
  5
B91
  8
DEFAULT_3
 10
230.5193795507389
 20
143.1018079389867
 30
0.0
  0
VERTEX
  5
B92
  8
DEFAULT_3
 10
230.3040763979393
 20
142.945379274064
 30
0.0
 42
0.153951546433426
  0
VERTEX
  5
B93
  8
DEFAULT_3
 10
228.1573956674224
 20
140.0438697290358
 30
0.0
 42
0.0035708884396139
  0
VERTEX
  5
B94
  8
DEFAULT_3
 10
228.7559273637308
 20
139.2199342784177
 30
0.0
 42
0.1547276818001123
  0
VERTEX
  5
B95
  8
DEFAULT_3
 10
232.1969792412667
 20
140.365220816569
 30
0.0
  0
VERTEX
  5
B96
  8
DEFAULT_3
 10
232.400300424855
 20
140.5129427136446
 30
0.0
 42
-0.4005843090784098
  0
VERTEX
  5
B97
  8
DEFAULT_3
 10
234.5384958111364
 20
140.2253462676312
 30
0.0
 42
0.0028017183490051
  0
VERTEX
  5
B98
  8
DEFAULT_3
 10
235.0046764919367
 20
139.6496609645243
 30
0.0
 42
-0.400584650525419
  0
VERTEX
  5
B99
  8
DEFAULT_3
 10
234.841431552692
 20
137.4983939101037
 30
0.0
  0
VERTEX
  5
B9A
  8
DEFAULT_3
 10
234.643659616037
 20
137.3203213085469
 30
0.0
 42
0.153951642604632
  0
VERTEX
  5
B9B
  8
DEFAULT_3
 10
232.8120272811508
 20
134.210315792416
 30
0.0
 42
0.0035708884396117
  0
VERTEX
  5
B9C
  8
DEFAULT_3
 10
233.4934048646863
 20
133.4534575448382
 30
0.0
 42
0.154727681800106
  0
VERTEX
  5
B9D
  8
DEFAULT_3
 10
236.7958912581598
 20
134.9521579482833
 30
0.0
  0
VERTEX
  5
B9E
  8
DEFAULT_3
 10
236.982657329086
 20
135.1203219591226
 30
0.0
 42
-0.4005843090784205
  0
VERTEX
  5
B9F
  8
DEFAULT_3
 10
239.1392016269135
 20
135.0578047755241
 30
0.0
 42
0.0028017183490021
  0
VERTEX
  5
BA0
  8
DEFAULT_3
 10
239.6630040212266
 20
134.5340022869117
 30
0.0
 42
-0.4005844509571134
  0
VERTEX
  5
BA1
  8
DEFAULT_3
 10
239.7255218272644
 20
132.3774571289357
 30
0.0
  0
VERTEX
  5
BA2
  8
DEFAULT_3
 10
239.5474455004173
 20
132.1796851922807
 30
0.0
 42
0.1539515609023946
  0
VERTEX
  5
BA3
  8
DEFAULT_3
 10
238.0509327642609
 20
128.8952601642958
 30
0.0
 42
0.0035708884395867
  0
VERTEX
  5
BA4
  8
DEFAULT_3
 10
238.8076909196308
 20
128.2137714171016
 30
0.0
 42
0.1547276818001052
  0
VERTEX
  5
BA5
  8
DEFAULT_3
 10
241.9354290970253
 20
130.0494656105972
 30
0.0
  0
VERTEX
  5
BA6
  8
DEFAULT_3
 10
242.1035940817097
 20
130.2362312103863
 30
0.0
 42
-0.4005843090784376
  0
VERTEX
  5
BA7
  8
DEFAULT_3
 10
244.2548594658938
 20
130.3994763252694
 30
0.0
 42
0.0028017183489739
  0
VERTEX
  5
BA8
  8
DEFAULT_3
 10
244.8305446850748
 20
129.9332955408294
 30
0.0
 42
-0.4005840891967499
  0
VERTEX
  5
BA9
  8
DEFAULT_3
 10
245.1181403046089
 20
127.7951004673776
 30
0.0
  0
VERTEX
  5
BAA
  8
DEFAULT_3
 10
244.9617116396862
 20
127.5797973145779
 30
0.0
 42
0.1539515858715813
  0
SEQEND
  5
D7A
  8
DEFAULT_3
  0
POLYLINE
  5
14F
  8
DEFAULT_3
 66
     1
 10
0.0
 20
0.0
 30
0.0
 70
     1
  0
VERTEX
  5
BAB
  8
DEFAULT_3
 10
268.1986993919268
 20
62.37915575162739
 30
0.0
 42
0.4091106820278221
  0
VERTEX
  5
BAC
  8
DEFAULT_3
 10
272.1288882641407
 20
58.37976513144969
 30
0.0
  0
VERTEX
  5
BAD
  8
DEFAULT_3
 10
320.2435976634874
 20
57.53991936923241
 30
0.0
 42
0.5037003884092294
  0
VERTEX
  5
BAE
  8
DEFAULT_3
 10
324.1596596707702
 20
62.6376686656779
 30
0.0
 42
-0.1411086098322931
  0
VERTEX
  5
BAF
  8
DEFAULT_3
 10
324.1901434039708
 20
76.4730110439846
 30
0.0
 42
0.50508179039831
  0
VERTEX
  5
BB0
  8
DEFAULT_3
 10
320.2789650604746
 20
81.58769836558687
 30
0.0
  0
VERTEX
  5
BB1
  8
DEFAULT_3
 10
272.1288881073847
 20
80.74723554433561
 30
0.0
 42
0.4091107825661936
  0
VERTEX
  5
BB2
  8
DEFAULT_3
 10
268.1986978898897
 20
76.74784486818254
 30
0.0
  0
SEQEND
  5
D7B
  8
DEFAULT_3
  0
POLYLINE
  5
150
  8
DEFAULT_3
 66
     1
 10
0.0
 20
0.0
 30
0.0
 70
     1
  0
VERTEX
  5
BB3
  8
DEFAULT_3
 10
140.2884692309574
 20
162.0596589239162
 30
0.0
 42
0.4399510942662254
  0
VERTEX
  5
BB4
  8
DEFAULT_3
 10
140.1858025890825
 20
159.7028218491704
 30
0.0
 42
0.4399510942662222
  0
VERTEX
  5
BB5
  8
DEFAULT_3
 10
142.5426396339153
 20
159.8054884395734
 30
0.0
  0
VERTEX
  5
BB6
  8
DEFAULT_3
 10
143.8486820625546
 20
161.361337049048
 30
0.0
 42
-0.3886326235017062
  0
VERTEX
  5
BB7
  8
DEFAULT_3
 10
145.940800002361
 20
161.6372540639956
 30
0.0
 42
0.0105810988076802
  0
VERTEX
  5
BB8
  8
DEFAULT_3
 10
146.4862063904986
 20
161.2728251664573
 30
0.0
 42
-0.3886325170721495
  0
VERTEX
  5
BB9
  8
DEFAULT_3
 10
147.0319110324756
 20
159.2343717532081
 30
0.0
  0
VERTEX
  5
BBA
  8
DEFAULT_3
 10
146.0942950455621
 20
157.4323473216814
 30
0.0
 42
0.4399510058697412
  0
VERTEX
  5
BBB
  8
DEFAULT_3
 10
146.9013666971067
 20
155.215625581252
 30
0.0
 42
0.4399510058697426
  0
VERTEX
  5
BBC
  8
DEFAULT_3
 10
149.0395110239069
 20
156.2124000186232
 30
0.0
  0
VERTEX
  5
BBD
  8
DEFAULT_3
 10
149.6507393976871
 20
158.149617187411
 30
0.0
 42
-0.3886326235016917
  0
VERTEX
  5
BBE
  8
DEFAULT_3
 10
151.4780154715457
 20
159.2051501443104
 30
0.0
 42
0.0105810988076383
  0
VERTEX
  5
BBF
  8
DEFAULT_3
 10
152.12136617181
 20
159.0771797334655
 30
0.0
 42
-0.388632719383935
  0
VERTEX
  5
BC0
  8
DEFAULT_3
 10
153.4056141629964
 20
157.4027256758732
 30
0.0
  0
VERTEX
  5
BC1
  8
DEFAULT_3
 10
153.2289744012207
 20
155.3790641667169
 30
0.0
 42
0.4399508514490696
  0
VERTEX
  5
BC2
  8
DEFAULT_3
 10
154.8229134350467
 20
153.6399334522425
 30
0.0
 42
0.4399508514490569
  0
VERTEX
  5
BC3
  8
DEFAULT_3
 10
156.4168531541894
 20
155.379063853987
 30
0.0
  0
VERTEX
  5
BC4
  8
DEFAULT_3
 10
156.2402133965192
 20
157.4027261588722
 30
0.0
 42
-0.3886326235016902
  0
VERTEX
  5
BC5
  8
DEFAULT_3
 10
157.5244613864841
 20
159.0771797334655
 30
0.0
 42
0.0105810988076807
  0
VERTEX
  5
BC6
  8
DEFAULT_3
 10
158.1678120867484
 20
159.2051501443104
 30
0.0
 42
-0.3886327087489879
  0
VERTEX
  5
BC7
  8
DEFAULT_3
 10
159.99508820308
 20
158.1496165783924
 30
0.0
  0
VERTEX
  5
BC8
  8
DEFAULT_3
 10
160.606316605784
 20
156.212400430612
 30
0.0
 42
0.4399513372288543
  0
VERTEX
  5
BC9
  8
DEFAULT_3
 10
162.7444615247554
 20
155.2156246810667
 30
0.0
 42
0.4399513372288642
  0
VERTEX
  5
BCA
  8
DEFAULT_3
 10
163.5515324498621
 20
157.4323476540773
 30
0.0
  0
VERTEX
  5
BCB
  8
DEFAULT_3
 10
162.6139163764595
 20
159.2343713519425
 30
0.0
 42
-0.3886326235016961
  0
VERTEX
  5
BCC
  8
DEFAULT_3
 10
163.1596211677954
 20
161.2728251664573
 30
0.0
 42
0.0105810988076565
  0
VERTEX
  5
BCD
  8
DEFAULT_3
 10
163.7050275559331
 20
161.6372540639956
 30
0.0
 42
-0.3886327079728343
  0
VERTEX
  5
BCE
  8
DEFAULT_3
 10
165.7971458865479
 20
161.3613374249858
 30
0.0
  0
VERTEX
  5
BCF
  8
DEFAULT_3
 10
167.1031879617051
 20
159.8054885582847
 30
0.0
 42
0.4399510942660929
  0
VERTEX
  5
BD0
  8
DEFAULT_3
 10
169.4600250364505
 20
159.7028219164102
 30
0.0
 42
0.4399510942660861
  0
VERTEX
  5
BD1
  8
DEFAULT_3
 10
169.357358446048
 20
162.0596589612426
 30
0.0
  0
VERTEX
  5
BD2
  8
DEFAULT_3
 10
167.8015098365734
 20
163.365701389882
 30
0.0
 42
-0.3886326235017142
  0
VERTEX
  5
BD3
  8
DEFAULT_3
 10
167.5255928216257
 20
165.4578193296883
 30
0.0
 42
0.0105810988076915
  0
VERTEX
  5
BD4
  8
DEFAULT_3
 10
167.8900217191641
 20
166.003225717826
 30
0.0
 42
-0.3886325170721277
  0
VERTEX
  5
BD5
  8
DEFAULT_3
 10
169.9284751324132
 20
166.5489303598029
 30
0.0
  0
VERTEX
  5
BD6
  8
DEFAULT_3
 10
171.7304995639399
 20
165.6113143728894
 30
0.0
 42
0.439951005869653
  0
VERTEX
  5
BD7
  8
DEFAULT_3
 10
173.9472213043688
 20
166.4183860244342
 30
0.0
 42
0.43995100586966
  0
VERTEX
  5
BD8
  8
DEFAULT_3
 10
172.9504468669981
 20
168.5565303512342
 30
0.0
  0
VERTEX
  5
BD9
  8
DEFAULT_3
 10
171.0132296982103
 20
169.1677587250144
 30
0.0
 42
-0.3886326235017121
  0
VERTEX
  5
BDA
  8
DEFAULT_3
 10
169.9576967413109
 20
170.995034798873
 30
0.0
 42
0.0105810988076374
  0
VERTEX
  5
BDB
  8
DEFAULT_3
 10
170.0856671521558
 20
171.6383854991374
 30
0.0
 42
-0.3886327193839372
  0
VERTEX
  5
BDC
  8
DEFAULT_3
 10
171.7601212097481
 20
172.9226334903237
 30
0.0
  0
VERTEX
  5
BDD
  8
DEFAULT_3
 10
173.7837827189044
 20
172.745993728548
 30
0.0
 42
0.4399508514489366
  0
VERTEX
  5
BDE
  8
DEFAULT_3
 10
175.5229134333781
 20
174.339932762374
 30
0.0
 42
0.4399508514489265
  0
VERTEX
  5
BDF
  8
DEFAULT_3
 10
173.7837830316343
 20
175.9338724815167
 30
0.0
  0
VERTEX
  5
BE0
  8
DEFAULT_3
 10
171.7601207267492
 20
175.7572327238466
 30
0.0
 42
-0.3886326235016754
  0
VERTEX
  5
BE1
  8
DEFAULT_3
 10
170.0856671521558
 20
177.0414807138112
 30
0.0
 42
0.0105810988076887
  0
VERTEX
  5
BE2
  8
DEFAULT_3
 10
169.9576967413109
 20
177.6848314140756
 30
0.0
 42
-0.3886327087489856
  0
VERTEX
  5
BE3
  8
DEFAULT_3
 10
171.0132303072289
 20
179.5121075304073
 30
0.0
  0
VERTEX
  5
BE4
  8
DEFAULT_3
 10
172.9504464550093
 20
180.1233359331113
 30
0.0
 42
0.4399513372287995
  0
VERTEX
  5
BE5
  8
DEFAULT_3
 10
173.9472222045543
 20
182.2614808520825
 30
0.0
 42
0.439951337228799
  0
VERTEX
  5
BE6
  8
DEFAULT_3
 10
171.730499231544
 20
183.0685517771894
 30
0.0
  0
VERTEX
  5
BE7
  8
DEFAULT_3
 10
169.9284755336788
 20
182.1309357037869
 30
0.0
 42
-0.3886326235016669
  0
VERTEX
  5
BE8
  8
DEFAULT_3
 10
167.8900217191641
 20
182.6766404951226
 30
0.0
 42
0.0105810988076802
  0
VERTEX
  5
BE9
  8
DEFAULT_3
 10
167.5255928216257
 20
183.2220468832604
 30
0.0
 42
-0.3886327079728399
  0
VERTEX
  5
BEA
  8
DEFAULT_3
 10
167.8015094606355
 20
185.3141652138752
 30
0.0
  0
VERTEX
  5
BEB
  8
DEFAULT_3
 10
169.3573583273367
 20
186.6202072890324
 30
0.0
 42
0.4399510942660651
  0
VERTEX
  5
BEC
  8
DEFAULT_3
 10
169.4600249692109
 20
188.9770443637776
 30
0.0
 42
0.4399510942660513
  0
VERTEX
  5
BED
  8
DEFAULT_3
 10
167.1031879243787
 20
188.8743777733753
 30
0.0
  0
VERTEX
  5
BEE
  8
DEFAULT_3
 10
165.7971454957393
 20
187.3185291639008
 30
0.0
 42
-0.3886326235016891
  0
VERTEX
  5
BEF
  8
DEFAULT_3
 10
163.7050275559332
 20
187.042612148953
 30
0.0
 42
0.0105810988076565
  0
VERTEX
  5
BF0
  8
DEFAULT_3
 10
163.1596211677954
 20
187.4070410464913
 30
0.0
 42
-0.388632517072113
  0
VERTEX
  5
BF1
  8
DEFAULT_3
 10
162.6139165258184
 20
189.4454944597405
 30
0.0
  0
VERTEX
  5
BF2
  8
DEFAULT_3
 10
163.5515325127319
 20
191.2475188912672
 30
0.0
 42
0.4399510058695858
  0
VERTEX
  5
BF3
  8
DEFAULT_3
 10
162.7444608611869
 20
193.4642406316957
 30
0.0
 42
0.4399510058695789
  0
VERTEX
  5
BF4
  8
DEFAULT_3
 10
160.606316534387
 20
192.4674661943254
 30
0.0
  0
VERTEX
  5
BF5
  8
DEFAULT_3
 10
159.9950881606069
 20
190.5302490255377
 30
0.0
 42
-0.3886326235016709
  0
VERTEX
  5
BF6
  8
DEFAULT_3
 10
158.1678120867484
 20
189.4747160686382
 30
0.0
 42
0.0105810988076798
  0
VERTEX
  5
BF7
  8
DEFAULT_3
 10
157.524461386484
 20
189.6026864794831
 30
0.0
 42
-0.3886327193839182
  0
VERTEX
  5
BF8
  8
DEFAULT_3
 10
156.2402133952976
 20
191.2771405370754
 30
0.0
  0
VERTEX
  5
BF9
  8
DEFAULT_3
 10
156.4168531570733
 20
193.3008020462316
 30
0.0
 42
0.4399508514488759
  0
VERTEX
  5
BFA
  8
DEFAULT_3
 10
154.8229141232472
 20
195.0399327607051
 30
0.0
 42
0.4399508514488687
  0
VERTEX
  5
BFB
  8
DEFAULT_3
 10
153.2289744041046
 20
193.3008023589616
 30
0.0
  0
VERTEX
  5
BFC
  8
DEFAULT_3
 10
153.4056141617747
 20
191.2771400540764
 30
0.0
 42
-0.3886326235016698
  0
VERTEX
  5
BFD
  8
DEFAULT_3
 10
152.1213661718101
 20
189.6026864794831
 30
0.0
 42
0.0105810988076836
  0
VERTEX
  5
BFE
  8
DEFAULT_3
 10
151.4780154715459
 20
189.4747160686382
 30
0.0
 42
-0.3886327087490155
  0
VERTEX
  5
BFF
  8
DEFAULT_3
 10
149.650739355214
 20
190.5302496345562
 30
0.0
  0
VERTEX
  5
C00
  8
DEFAULT_3
 10
149.03951095251
 20
192.4674657823366
 30
0.0
 42
0.4399513372289957
  0
VERTEX
  5
C01
  8
DEFAULT_3
 10
146.9013660335385
 20
193.4642415318827
 30
0.0
 42
0.43995133722899
  0
VERTEX
  5
C02
  8
DEFAULT_3
 10
146.094295108432
 20
191.2475185588713
 30
0.0
  0
VERTEX
  5
C03
  8
DEFAULT_3
 10
147.0319111818346
 20
189.4454948610062
 30
0.0
 42
-0.3886326235016569
  0
VERTEX
  5
C04
  8
DEFAULT_3
 10
146.4862063904989
 20
187.4070410464915
 30
0.0
 42
0.0105810988076565
  0
VERTEX
  5
C05
  8
DEFAULT_3
 10
145.9408000023611
 20
187.0426121489531
 30
0.0
 42
-0.3886327079728894
  0
VERTEX
  5
C06
  8
DEFAULT_3
 10
143.8486816717461
 20
187.3185287879628
 30
0.0
  0
VERTEX
  5
C07
  8
DEFAULT_3
 10
142.5426395965889
 20
188.8743776546639
 30
0.0
 42
0.439951094266238
  0
VERTEX
  5
C08
  8
DEFAULT_3
 10
140.185802521843
 20
188.977044296539
 30
0.0
 42
0.439951094266244
  0
VERTEX
  5
C09
  8
DEFAULT_3
 10
140.2884691122461
 20
186.6202072517061
 30
0.0
  0
VERTEX
  5
C0A
  8
DEFAULT_3
 10
141.8443177217206
 20
185.3141648230668
 30
0.0
 42
-0.3886326235016658
  0
VERTEX
  5
C0B
  8
DEFAULT_3
 10
142.1202347366685
 20
183.2220468832606
 30
0.0
 42
0.0105810988076915
  0
VERTEX
  5
C0C
  8
DEFAULT_3
 10
141.7558058391301
 20
182.6766404951228
 30
0.0
 42
-0.3886325170721595
  0
VERTEX
  5
C0D
  8
DEFAULT_3
 10
139.7173524258808
 20
182.1309358531457
 30
0.0
  0
VERTEX
  5
C0E
  8
DEFAULT_3
 10
137.9153279943541
 20
183.0685518400592
 30
0.0
 42
0.4399510058698217
  0
VERTEX
  5
C0F
  8
DEFAULT_3
 10
135.6986062539245
 20
182.2614801885148
 30
0.0
 42
0.4399510058698168
  0
VERTEX
  5
C10
  8
DEFAULT_3
 10
136.6953806912959
 20
180.1233358617144
 30
0.0
  0
VERTEX
  5
C11
  8
DEFAULT_3
 10
138.6325978600837
 20
179.5121074879343
 30
0.0
 42
-0.3886326235016641
  0
VERTEX
  5
C12
  8
DEFAULT_3
 10
139.6881308169832
 20
177.6848314140759
 30
0.0
 42
0.0105810988076727
  0
VERTEX
  5
C13
  8
DEFAULT_3
 10
139.5601604061382
 20
177.0414807138115
 30
0.0
 42
-0.3886327193839468
  0
VERTEX
  5
C14
  8
DEFAULT_3
 10
137.8857063485459
 20
175.7572327226248
 30
0.0
  0
VERTEX
  5
C15
  8
DEFAULT_3
 10
135.8620448393897
 20
175.9338724844006
 30
0.0
 42
0.4399508514491216
  0
VERTEX
  5
C16
  8
DEFAULT_3
 10
134.1229141249149
 20
174.3399334505746
 30
0.0
 42
0.4399508514491136
  0
VERTEX
  5
C17
  8
DEFAULT_3
 10
135.8620445266596
 20
172.745993731432
 30
0.0
  0
VERTEX
  5
C18
  8
DEFAULT_3
 10
137.8857068315449
 20
172.9226334891021
 30
0.0
 42
-0.3886326235017223
  0
VERTEX
  5
C19
  8
DEFAULT_3
 10
139.5601604061382
 20
171.6383854991373
 30
0.0
 42
0.0105810988076807
  0
VERTEX
  5
C1A
  8
DEFAULT_3
 10
139.6881308169831
 20
170.995034798873
 30
0.0
 42
-0.3886327087490013
  0
VERTEX
  5
C1B
  8
DEFAULT_3
 10
138.6325972510651
 20
169.1677586825413
 30
0.0
  0
VERTEX
  5
C1C
  8
DEFAULT_3
 10
136.6953811032847
 20
168.5565302798373
 30
0.0
 42
0.4399513372289208
  0
VERTEX
  5
C1D
  8
DEFAULT_3
 10
135.6986053537392
 20
166.4183853608659
 30
0.0
 42
0.4399513372289104
  0
VERTEX
  5
C1E
  8
DEFAULT_3
 10
137.91532832675
 20
165.6113144357593
 30
0.0
  0
VERTEX
  5
C1F
  8
DEFAULT_3
 10
139.7173520246152
 20
166.5489305091618
 30
0.0
 42
-0.3886326235017105
  0
VERTEX
  5
C20
  8
DEFAULT_3
 10
141.75580583913
 20
166.0032257178259
 30
0.0
 42
0.0105810988076565
  0
VERTEX
  5
C21
  8
DEFAULT_3
 10
142.1202347366683
 20
165.4578193296882
 30
0.0
 42
-0.3886327079728589
  0
VERTEX
  5
C22
  8
DEFAULT_3
 10
141.8443180976585
 20
163.3657009990734
 30
0.0
  0
SEQEND
  5
D7C
  8
DEFAULT_3
  0
POLYLINE
  5
151
  8
DEFAULT_3
 66
     1
 10
0.0
 20
0.0
 30
0.0
 70
     1
  0
VERTEX
  5
C23
  8
DEFAULT_3
 10
93.81766675902304
 20
61.49219908025133
 30
0.0
  0
VERTEX
  5
C24
  8
DEFAULT_3
 10
156.3288883115306
 20
60.40106152774072
 30
0.0
 42
0.4193348072093039
  0
VERTEX
  5
C25
  8
DEFAULT_3
 10
160.3986978898897
 20
64.40045243076295
 30
0.0
  0
VERTEX
  5
C26
  8
DEFAULT_3
 10
160.3986981134071
 20
74.7265484894929
 30
0.0
 42
0.4193348081854689
  0
VERTEX
  5
C27
  8
DEFAULT_3
 10
156.3288882641405
 20
78.72593913012055
 30
0.0
  0
VERTEX
  5
C28
  8
DEFAULT_3
 10
93.79834745034121
 20
77.63446399600483
 30
0.0
 42
0.4564952468318833
  0
VERTEX
  5
C29
  8
DEFAULT_3
 10
89.91900846560496
 20
72.9992789065023
 30
0.0
 42
-0.0787890315058024
  0
VERTEX
  5
C2A
  8
DEFAULT_3
 10
89.93535661632872
 20
66.1086387534931
 30
0.0
 42
0.4550625148594689
  0
SEQEND
  5
D7D
  8
DEFAULT_3
  0
POLYLINE
  5
152
  8
DEFAULT_3
 66
     1
 10
0.0
 20
0.0
 30
0.0
 70
     1
  0
VERTEX
  5
C2B
  8
DEFAULT_3
 10
78.84050418128525
 20
50.24748728245753
 30
0.0
 42
-0.5815420941101085
  0
VERTEX
  5
C2C
  8
DEFAULT_3
 10
46.20944132347626
 20
70.18986359342779
 30
0.0
 42
-0.5815420941101084
  0
VERTEX
  5
C2D
  8
DEFAULT_3
 10
80.02248980643138
 20
88.0549801183194
 30
0.0
 42
0.1472653950118675
  0
VERTEX
  5
C2E
  8
DEFAULT_3
 10
88.9008497796305
 20
85.55019670509881
 30
0.0
  0
VERTEX
  5
C2F
  8
DEFAULT_3
 10
329.306528880519
 20
89.74649370256058
 30
0.0
 42
0.1178194466797154
  0
VERTEX
  5
C30
  8
DEFAULT_3
 10
336.5088152603973
 20
91.60097422518675
 30
0.0
 42
-0.5648771823339922
  0
VERTEX
  5
C31
  8
DEFAULT_3
 10
373.1986935243262
 20
69.51718190251327
 30
0.0
 42
-0.5648771823339926
  0
VERTEX
  5
C32
  8
DEFAULT_3
 10
336.5349425825387
 20
47.39003980843637
 30
0.0
 42
0.1188021361781185
  0
VERTEX
  5
C33
  8
DEFAULT_3
 10
329.2684539760351
 20
49.23689541601735
 30
0.0
  0
VERTEX
  5
C34
  8
DEFAULT_3
 10
86.77831229395329
 20
52.2426797799372
 30
0.0
 42
0.1300491116627331
  0
SEQEND
  5
D7E
  8
DEFAULT_3
  0
POLYLINE
  5
153
  8
DEFAULT_3
 66
     1
 10
0.0
 20
0.0
 30
0.0
  0
VERTEX
  5
C35
  8
DEFAULT_3
 10
306.7772412613774
 20
168.5823769896817
 30
0.0
  0
VERTEX
  5
C36
  8
DEFAULT_3
 10
306.3831637852634
 20
168.9460254267791
 30
0.0
  0
VERTEX
  5
C37
  8
DEFAULT_3
 10
308.8061611701707
 20
171.5717721553955
 30
0.0
  0
VERTEX
  5
C38
  8
DEFAULT_3
 10
309.2002386462846
 20
171.2081237182981
 30
0.0
  0
SEQEND
  5
D7F
  8
DEFAULT_3
  0
POLYLINE
  5
154
  8
DEFAULT_3
 66
     1
 10
0.0
 20
0.0
 30
0.0
  0
VERTEX
  5
C39
  8
DEFAULT_3
 10
314.6894097530233
 20
161.2811535490243
 30
0.0
  0
VERTEX
  5
C3A
  8
DEFAULT_3
 10
315.0834872291372
 20
160.9175051119269
 30
0.0
  0
VERTEX
  5
C3B
  8
DEFAULT_3
 10
317.5064846140444
 20
163.5432518405432
 30
0.0
  0
VERTEX
  5
C3C
  8
DEFAULT_3
 10
317.1124071379305
 20
163.9069002776407
 30
0.0
  0
SEQEND
  5
D80
  8
DEFAULT_3
  0
POLYLINE
  5
155
  8
DEFAULT_3
 66
     1
 10
0.0
 20
0.0
 30
0.0
  0
VERTEX
  5
C3D
  8
DEFAULT_3
 10
288.3448750526059
 20
179.5004321423262
 30
0.0
  0
VERTEX
  5
C3E
  8
DEFAULT_3
 10
290.0132787480121
 20
177.4069771313091
 30
0.0
  0
VERTEX
  5
C3F
  8
DEFAULT_3
 10
290.5653737249464
 20
178.0052698032702
 30
0.0
  0
SEQEND
  5
D81
  8
DEFAULT_3
  0
POLYLINE
  5
156
  8
DEFAULT_3
 66
     1
 10
0.0
 20
0.0
 30
0.0
  0
VERTEX
  5
C40
  8
DEFAULT_3
 10
315.0393358444745
 20
154.8672076255458
 30
0.0
  0
VERTEX
  5
C41
  8
DEFAULT_3
 10
288.3448750526059
 20
179.5004321423262
 30
0.0
  0
VERTEX
  5
C42
  8
DEFAULT_3
 10
283.9354109505938
 20
183.5694155943775
 30
0.0
  0
SEQEND
  5
D82
  8
DEFAULT_3
  0
POLYLINE
  5
157
  8
DEFAULT_3
 66
     1
 10
0.0
 20
0.0
 30
0.0
  0
VERTEX
  5
C43
  8
DEFAULT_3
 10
227.5848574388938
 20
212.4915982071302
 30
0.0
  0
VERTEX
  5
C44
  8
DEFAULT_3
 10
230.2030214796571
 20
211.9336180733876
 30
0.0
  0
VERTEX
  5
C45
  8
DEFAULT_3
 10
230.2496668821341
 20
212.7463832247728
 30
0.0
  0
SEQEND
  5
D83
  8
DEFAULT_3
  0
POLYLINE
  5
158
  8
DEFAULT_3
 66
     1
 10
0.0
 20
0.0
 30
0.0
  0
VERTEX
  5
C46
  8
DEFAULT_3
 10
216.1997084236142
 20
221.3474924842621
 30
0.0
  0
VERTEX
  5
C47
  8
DEFAULT_3
 10
216.7351512557264
 20
221.3135720153101
 30
0.0
  0
VERTEX
  5
C48
  8
DEFAULT_3
 10
216.4693634679797
 20
217.1180473009159
 30
0.0
  0
VERTEX
  5
C49
  8
DEFAULT_3
 10
215.9339206358674
 20
217.151967769868
 30
0.0
  0
SEQEND
  5
D84
  8
DEFAULT_3
  0
POLYLINE
  5
159
  8
DEFAULT_3
 66
     1
 10
0.0
 20
0.0
 30
0.0
  0
VERTEX
  5
C4A
  8
DEFAULT_3
 10
205.1840110473911
 20
222.0453403186627
 30
0.0
  0
VERTEX
  5
C4B
  8
DEFAULT_3
 10
204.6485682152788
 20
222.0792607876147
 30
0.0
  0
VERTEX
  5
C4C
  8
DEFAULT_3
 10
204.3827804275321
 20
217.8837360732206
 30
0.0
  0
VERTEX
  5
C4D
  8
DEFAULT_3
 10
204.9182232596443
 20
217.8498156042686
 30
0.0
  0
SEQEND
  5
D85
  8
DEFAULT_3
  0
POLYLINE
  5
15A
  8
DEFAULT_3
 66
     1
 10
0.0
 20
0.0
 30
0.0
  0
VERTEX
  5
C4E
  8
DEFAULT_3
 10
202.3868534993125
 20
213.9377367791076
 30
0.0
  0
VERTEX
  5
C4F
  8
DEFAULT_3
 10
227.5848574388938
 20
212.4915982071302
 30
0.0
  0
VERTEX
  5
C50
  8
DEFAULT_3
 10
232.6646396350511
 20
212.2000644416494
 30
0.0
  0
SEQEND
  5
D86
  8
DEFAULT_3
  0
POLYLINE
  5
15B
  8
DEFAULT_3
 66
     1
 10
0.0
 20
0.0
 30
0.0
  0
VERTEX
  5
C51
  8
DEFAULT_3
 10
175.7697506169267
 20
208.985729134202
 30
0.0
  0
VERTEX
  5
C52
  8
DEFAULT_3
 10
176.1834275288865
 20
209.3273737407534
 30
0.0
  0
VERTEX
  5
C53
  8
DEFAULT_3
 10
178.8604236606142
 20
206.0859600849664
 30
0.0
  0
VERTEX
  5
C54
  8
DEFAULT_3
 10
178.4467467486543
 20
205.744315478415
 30
0.0
  0
SEQEND
  5
D87
  8
DEFAULT_3
  0
POLYLINE
  5
15C
  8
DEFAULT_3
 66
     1
 10
0.0
 20
0.0
 30
0.0
  0
VERTEX
  5
C55
  8
DEFAULT_3
 10
154.6666219479702
 20
216.986116741405
 30
0.0
  0
VERTEX
  5
C56
  8
DEFAULT_3
 10
154.8485081430014
 20
217.4908612676074
 30
0.0
  0
VERTEX
  5
C57
  8
DEFAULT_3
 10
158.8034927036944
 20
216.0656707884478
 30
0.0
  0
VERTEX
  5
C58
  8
DEFAULT_3
 10
158.6216065086632
 20
215.5609262622453
 30
0.0
  0
SEQEND
  5
D88
  8
DEFAULT_3
  0
POLYLINE
  5
15D
  8
DEFAULT_3
 66
     1
 10
0.0
 20
0.0
 30
0.0
  0
VERTEX
  5
C59
  8
DEFAULT_3
 10
167.2591507911638
 20
201.9570542313323
 30
0.0
  0
VERTEX
  5
C5A
  8
DEFAULT_3
 10
166.8454738792039
 20
201.6154096247809
 30
0.0
  0
VERTEX
  5
C5B
  8
DEFAULT_3
 10
169.5224700109316
 20
198.3739959689939
 30
0.0
  0
VERTEX
  5
C5C
  8
DEFAULT_3
 10
169.9361469228915
 20
198.7156405755453
 30
0.0
  0
SEQEND
  5
D89
  8
DEFAULT_3
  0
POLYLINE
  5
15E
  8
DEFAULT_3
 66
     1
 10
0.0
 20
0.0
 30
0.0
  0
VERTEX
  5
C5D
  8
DEFAULT_3
 10
150.9246663904127
 20
206.6019774467994
 30
0.0
  0
VERTEX
  5
C5E
  8
DEFAULT_3
 10
150.7427801953815
 20
206.0972329205969
 30
0.0
  0
VERTEX
  5
C5F
  8
DEFAULT_3
 10
154.6977647560745
 20
204.6720424414373
 30
0.0
  0
VERTEX
  5
C60
  8
DEFAULT_3
 10
154.8796509511057
 20
205.1767869676398
 30
0.0
  0
SEQEND
  5
D8A
  8
DEFAULT_3
  0
POLYLINE
  5
15F
  8
DEFAULT_3
 66
     1
 10
0.0
 20
0.0
 30
0.0
  0
VERTEX
  5
C61
  8
DEFAULT_3
 10
162.7952607854383
 20
187.7293157641332
 30
0.0
  0
VERTEX
  5
C62
  8
DEFAULT_3
 10
160.4885768197553
 20
186.3708851047111
 30
0.0
  0
VERTEX
  5
C63
  8
DEFAULT_3
 10
161.0035587042374
 20
185.7403641744213
 30
0.0
  0
SEQEND
  5
D8B
  8
DEFAULT_3
  0
POLYLINE
  5
160
  8
DEFAULT_3
 66
     1
 10
0.0
 20
0.0
 30
0.0
  0
VERTEX
  5
C64
  8
DEFAULT_3
 10
155.3653352683566
 20
194.9451835600679
 30
0.0
  0
VERTEX
  5
C65
  8
DEFAULT_3
 10
163.0873151779928
 20
216.3741165814292
 30
0.0
  0
SEQEND
  5
D8C
  8
DEFAULT_3
  0
POLYLINE
  5
161
  8
DEFAULT_3
 66
     1
 10
0.0
 20
0.0
 30
0.0
  0
VERTEX
  5
C66
  8
DEFAULT_3
 10
154.822913779147
 20
193.4399331064743
 30
0.0
  0
VERTEX
  5
C67
  8
DEFAULT_3
 10
155.3653352683566
 20
194.9451835600679
 30
0.0
  0
VERTEX
  5
C68
  8
DEFAULT_3
 10
156.6452546332383
 20
197.2963388491541
 30
0.0
  0
VERTEX
  5
C69
  8
DEFAULT_3
 10
155.8793619745589
 20
197.5723305523978
 30
0.0
  0
SEQEND
  5
D8D
  8
DEFAULT_3
  0
POLYLINE
  5
162
  8
DEFAULT_3
 66
     1
 10
0.0
 20
0.0
 30
0.0
  0
VERTEX
  5
C6A
  8
DEFAULT_3
 10
158.8545049711268
 20
184.5106789861196
 30
0.0
  0
VERTEX
  5
C6B
  8
DEFAULT_3
 10
162.7952607854383
 20
187.7293157641332
 30
0.0
  0
VERTEX
  5
C6C
  8
DEFAULT_3
 10
182.7920050278818
 20
204.0617807764332
 30
0.0
  0
SEQEND
  5
D8E
  8
DEFAULT_3
  0
POLYLINE
  5
163
  8
DEFAULT_3
 66
     1
 10
0.0
 20
0.0
 30
0.0
  0
VERTEX
  5
C6D
  8
DEFAULT_3
 10
151.9251363002798
 20
173.5634759711668
 30
0.0
  0
VERTEX
  5
C6E
  8
DEFAULT_3
 10
157.7206912580142
 20
175.1163902417819
 30
0.0
  0
SEQEND
  5
D8F
  8
DEFAULT_3
  0
POLYLINE
  5
164
  8
DEFAULT_3
 66
     1
 10
0.0
 20
0.0
 30
0.0
  0
VERTEX
  5
C6F
  8
DEFAULT_3
 10
149.4748101756849
 20
172.4855025683756
 30
0.0
  0
VERTEX
  5
C70
  8
DEFAULT_3
 10
149.2641049274284
 20
173.2718652602904
 30
0.0
  0
VERTEX
  5
C71
  8
DEFAULT_3
 10
151.9251363002798
 20
173.5634759711668
 30
0.0
  0
VERTEX
  5
C72
  8
DEFAULT_3
 10
88.97851572941435
 20
156.6969798229353
 30
0.0
  0
SEQEND
  5
D90
  8
DEFAULT_3
  0
POLYLINE
  5
165
  8
DEFAULT_3
 66
     1
 10
0.0
 20
0.0
 30
0.0
  0
VERTEX
  5
C73
  8
DEFAULT_3
 10
258.1986978898897
 20
68.50240766288019
 30
0.0
  0
VERTEX
  5
C74
  8
DEFAULT_3
 10
258.1986978898897
 20
26.91687786550695
 30
0.0
  0
SEQEND
  5
D91
  8
DEFAULT_3
  0
POLYLINE
  5
166
  8
DEFAULT_3
 66
     1
 10
0.0
 20
0.0
 30
0.0
  0
VERTEX
  5
C75
  8
DEFAULT_3
 10
103.0748177328165
 20
165.140775133671
 30
0.0
  0
VERTEX
  5
C76
  8
DEFAULT_3
 10
103.5927713021361
 20
165.279560374287
 30
0.0
  0
VERTEX
  5
C77
  8
DEFAULT_3
 10
102.6680422485468
 20
168.7306961855172
 30
0.0
  0
VERTEX
  5
C78
  8
DEFAULT_3
 10
102.1500886792273
 20
168.5919109449012
 30
0.0
  0
SEQEND
  5
D92
  8
DEFAULT_3
  0
POLYLINE
  5
167
  8
DEFAULT_3
 66
     1
 10
0.0
 20
0.0
 30
0.0
  0
VERTEX
  5
C79
  8
DEFAULT_3
 10
146.3328241251808
 20
120.1945267544066
 30
0.0
  0
VERTEX
  5
C7A
  8
DEFAULT_3
 10
146.0647116287434
 20
120.6589112203804
 30
0.0
  0
VERTEX
  5
C7B
  8
DEFAULT_3
 10
149.1589153482132
 20
122.4453505707438
 30
0.0
  0
VERTEX
  5
C7C
  8
DEFAULT_3
 10
149.4270278446506
 20
121.98096610477
 30
0.0
  0
SEQEND
  5
D93
  8
DEFAULT_3
  0
POLYLINE
  5
168
  8
DEFAULT_3
 66
     1
 10
0.0
 20
0.0
 30
0.0
  0
VERTEX
  5
C7D
  8
DEFAULT_3
 10
151.7159058162431
 20
110.8707557641929
 30
0.0
  0
VERTEX
  5
C7E
  8
DEFAULT_3
 10
151.9840183126806
 20
110.4063712982191
 30
0.0
  0
VERTEX
  5
C7F
  8
DEFAULT_3
 10
155.0782220321504
 20
112.1928106485825
 30
0.0
  0
VERTEX
  5
C80
  8
DEFAULT_3
 10
154.8101095357129
 20
112.6571951145563
 30
0.0
  0
SEQEND
  5
D94
  8
DEFAULT_3
  0
POLYLINE
  5
169
  8
DEFAULT_3
 66
     1
 10
0.0
 20
0.0
 30
0.0
  0
VERTEX
  5
C81
  8
DEFAULT_3
 10
91.75077341838553
 20
165.8054228189219
 30
0.0
  0
VERTEX
  5
C82
  8
DEFAULT_3
 10
91.232819849066
 20
165.6666375783059
 30
0.0
  0
VERTEX
  5
C83
  8
DEFAULT_3
 10
92.15754890265524
 20
162.2155017670758
 30
0.0
  0
VERTEX
  5
C84
  8
DEFAULT_3
 10
92.67550247197478
 20
162.3542870076917
 30
0.0
  0
SEQEND
  5
D95
  8
DEFAULT_3
  0
POLYLINE
  5
16A
  8
DEFAULT_3
 66
     1
 10
0.0
 20
0.0
 30
0.0
  0
VERTEX
  5
C85
  8
DEFAULT_3
 10
215.8772595066958
 20
36.00839727597654
 30
0.0
  0
VERTEX
  5
C86
  8
DEFAULT_3
 10
216.4134844995707
 20
36.00839727597654
 30
0.0
  0
VERTEX
  5
C87
  8
DEFAULT_3
 10
216.4134844995707
 20
32.4355185752497
 30
0.0
  0
VERTEX
  5
C88
  8
DEFAULT_3
 10
215.8772595066958
 20
32.4355185752497
 30
0.0
  0
SEQEND
  5
D96
  8
DEFAULT_3
  0
POLYLINE
  5
16B
  8
DEFAULT_3
 66
     1
 10
0.0
 20
0.0
 30
0.0
  0
VERTEX
  5
C89
  8
DEFAULT_3
 10
167.2232644723236
 20
74.1883171140542
 30
0.0
  0
VERTEX
  5
C8A
  8
DEFAULT_3
 10
167.9282979741225
 20
74.59536839610547
 30
0.0
  0
VERTEX
  5
C8B
  8
DEFAULT_3
 10
168.8986978898897
 20
72.1004838742335
 30
0.0
  0
VERTEX
  5
C8C
  8
DEFAULT_3
 10
171.8986978898897
 20
66.90433145152687
 30
0.0
  0
SEQEND
  5
D97
  8
DEFAULT_3
  0
POLYLINE
  5
16C
  8
DEFAULT_3
 66
     1
 10
0.0
 20
0.0
 30
0.0
  0
VERTEX
  5
C8D
  8
DEFAULT_3
 10
168.8986978898897
 20
72.1004838742335
 30
0.0
  0
VERTEX
  5
C8E
  8
DEFAULT_3
 10
139.9142810874997
 20
122.3029664037261
 30
0.0
  0
SEQEND
  5
D98
  8
DEFAULT_3
  0
POLYLINE
  5
16D
  8
DEFAULT_3
 66
     1
 10
0.0
 20
0.0
 30
0.0
  0
VERTEX
  5
C8F
  8
DEFAULT_3
 10
170.3986978898897
 20
68.50240766288019
 30
0.0
  0
VERTEX
  5
C90
  8
DEFAULT_3
 10
170.3986978898897
 20
26.91687786550695
 30
0.0
  0
SEQEND
  5
D99
  8
DEFAULT_3
  0
POLYLINE
  5
16E
  8
DEFAULT_3
 66
     1
 10
0.0
 20
0.0
 30
0.0
  0
VERTEX
  5
C91
  8
DEFAULT_3
 10
205.1110961245712
 20
32.4355185752497
 30
0.0
  0
VERTEX
  5
C92
  8
DEFAULT_3
 10
204.5748711316963
 20
32.4355185752497
 30
0.0
  0
VERTEX
  5
C93
  8
DEFAULT_3
 10
204.5748711316963
 20
36.00839727597654
 30
0.0
  0
VERTEX
  5
C94
  8
DEFAULT_3
 10
205.1110961245712
 20
36.00839727597654
 30
0.0
  0
SEQEND
  5
D9A
  8
DEFAULT_3
  0
POLYLINE
  5
16F
  8
DEFAULT_3
 66
     1
 10
0.0
 20
0.0
 30
0.0
  0
VERTEX
  5
C95
  8
DEFAULT_3
 10
173.0445312232231
 20
28.32392914755823
 30
0.0
  0
VERTEX
  5
C96
  8
DEFAULT_3
 10
173.0445312232231
 20
27.50982658345567
 30
0.0
  0
VERTEX
  5
C97
  8
DEFAULT_3
 10
170.3986978898897
 20
27.91687786550695
 30
0.0
  0
VERTEX
  5
C98
  8
DEFAULT_3
 10
258.1986978898897
 20
27.91687786550695
 30
0.0
  0
VERTEX
  5
C99
  8
DEFAULT_3
 10
255.5528645565563
 20
28.32392914755823
 30
0.0
  0
VERTEX
  5
C9A
  8
DEFAULT_3
 10
255.5528645565563
 20
27.50982658345567
 30
0.0
  0
SEQEND
  5
D9B
  8
DEFAULT_3
  0
ENDSEC
  0
EOF
