  0
SECTION
  2
HEADER
  9
$ACADVER
  1
AC1009
  9
$INSBASE
 10
0.0
 20
0.0
 30
0.0
  9
$EXTMIN
 10
0.0
 20
0.0
 30
0.0
  9
$EXTMAX
 10
25.770215
 20
39.235
 30
0.0
  9
$LIMMIN
 10
0.0
 20
0.0
  9
$LIMMAX
 10
25.770215
 20
39.235
  9
$ORTHOMODE
 70
     1
  9
$REGENMODE
 70
     1
  9
$FILLMODE
 70
     1
  9
$QTEXTMODE
 70
     0
  9
$MIRRTEXT
 70
     0
  9
$DRAGMODE
 70
     2
  9
$LTSCALE
 40
0.5
  9
$OSMODE
 70
     0
  9
$ATTMODE
 70
     1
  9
$TEXTSIZE
 40
0.313
  9
$TRACEWID
 40
0.05
  9
$TEXTSTYLE
  7
STANDARD
  9
$CLAYER
  8
OBJECT
  9
$CELTYPE
  6
BYLAYER
  9
$CECOLOR
 62
   256
  9
$DIMSCALE
 40
2.5
  9
$DIMASZ
 40
0.18
  9
$DIMEXO
 40
0.063
  9
$DIMDLI
 40
0.38
  9
$DIMRND
 40
0.0
  9
$DIMDLE
 40
0.0
  9
$DIMEXE
 40
0.093
  9
$DIMTP
 40
0.0
  9
$DIMTM
 40
0.0
  9
$DIMTXT
 40
0.125
  9
$DIMCEN
 40
0.09
  9
$DIMTSZ
 40
0.0
  9
$DIMTOL
 70
     0
  9
$DIMLIM
 70
     0
  9
$DIMTIH
 70
     1
  9
$DIMTOH
 70
     1
  9
$DIMSE1
 70
     0
  9
$DIMSE2
 70
     0
  9
$DIMTAD
 70
     0
  9
$DIMZIN
 70
     0
  9
$DIMBLK
  1

  9
$DIMASO
 70
     1
  9
$DIMSHO
 70
     1
  9
$DIMPOST
  1

  9
$DIMAPOST
  1

  9
$DIMALT
 70
     0
  9
$DIMALTD
 70
     2
  9
$DIMALTF
 40
25.4
  9
$DIMLFAC
 40
1.0
  9
$DIMTOFL
 70
     0
  9
$DIMTVP
 40
0.0
  9
$DIMTIX
 70
     0
  9
$DIMSOXD
 70
     0
  9
$DIMSAH
 70
     0
  9
$DIMBLK1
  1

  9
$DIMBLK2
  1

  9
$DIMSTYLE
  2
*UNNAMED
  9
$DIMCLRD
 70
     0
  9
$DIMCLRE
 70
     0
  9
$DIMCLRT
 70
     0
  9
$DIMTFAC
 40
1.0
  9
$DIMGAP
 40
0.09
  9
$LUNITS
 70
     2
  9
$LUPREC
 70
     3
  9
$SKETCHINC
 40
0.123231
  9
$FILLETRAD
 40
0.3125
  9
$AUNITS
 70
     0
  9
$AUPREC
 70
     0
  9
$MENU
  1
acad
  9
$ELEVATION
 40
0.0
  9
$PELEVATION
 40
0.0
  9
$THICKNESS
 40
0.0
  9
$LIMCHECK
 70
     0
  9
$BLIPMODE
 70
     1
  9
$CHAMFERA
 40
0.0
  9
$CHAMFERB
 40
0.0
  9
$SKPOLY
 70
     0
  9
$TDCREATE
 40
2448285.596334375
  9
$TDUPDATE
 40
2449899.339214467
  9
$TDINDWG
 40
0.0112932870
  9
$TDUSRTIMER
 40
0.0112932870
  9
$USRTIMER
 70
     1
  9
$ANGBASE
 50
0.0
  9
$ANGDIR
 70
     0
  9
$PDMODE
 70
     0
  9
$PDSIZE
 40
0.0
  9
$PLINEWID
 40
0.0
  9
$COORDS
 70
     0
  9
$SPLFRAME
 70
     0
  9
$SPLINETYPE
 70
     6
  9
$SPLINESEGS
 70
     8
  9
$ATTDIA
 70
     0
  9
$ATTREQ
 70
     1
  9
$HANDLING
 70
     0
  9
$HANDSEED
  5
0
  9
$SURFTAB1
 70
     6
  9
$SURFTAB2
 70
     6
  9
$SURFTYPE
 70
     6
  9
$SURFU
 70
     6
  9
$SURFV
 70
     6
  9
$UCSNAME
  2

  9
$UCSORG
 10
0.0
 20
0.0
 30
0.0
  9
$UCSXDIR
 10
1.0
 20
0.0
 30
0.0
  9
$UCSYDIR
 10
0.0
 20
1.0
 30
0.0
  9
$PUCSNAME
  2

  9
$PUCSORG
 10
0.0
 20
0.0
 30
0.0
  9
$PUCSXDIR
 10
1.0
 20
0.0
 30
0.0
  9
$PUCSYDIR
 10
0.0
 20
1.0
 30
0.0
  9
$USERI1
 70
     0
  9
$USERI2
 70
     0
  9
$USERI3
 70
     0
  9
$USERI4
 70
     0
  9
$USERI5
 70
     0
  9
$USERR1
 40
0.0
  9
$USERR2
 40
0.0
  9
$USERR3
 40
0.0
  9
$USERR4
 40
0.0
  9
$USERR5
 40
0.0
  9
$WORLDVIEW
 70
     1
  9
$SHADEDGE
 70
     3
  9
$SHADEDIF
 70
    70
  9
$TILEMODE
 70
     1
  9
$MAXACTVP
 70
    16
  9
$PINSBASE
 10
0.0
 20
0.0
 30
0.0
  9
$PLIMCHECK
 70
     0
  9
$PEXTMIN
 10
1.000000E+20
 20
1.000000E+20
 30
1.000000E+20
  9
$PEXTMAX
 10
-1.000000E+20
 20
-1.000000E+20
 30
-1.000000E+20
  9
$PLIMMIN
 10
0.0
 20
0.0
  9
$PLIMMAX
 10
12.0
 20
9.0
  9
$UNITMODE
 70
     0
  9
$VISRETAIN
 70
     0
  9
$PLINEGEN
 70
     0
  9
$PSLTSCALE
 70
     0
  9
$TREEDEPTH
 70
  3020
  9
$DWGCODEPAGE
  3
undefined
  0
ENDSEC
  0
SECTION
  2
TABLES
  0
TABLE
  2
VPORT
 70
     2
  0
VPORT
  2
*ACTIVE
 70
     0
 10
0.0
 20
0.0
 11
1.0
 21
1.0
 12
26.725695
 22
19.6175
 13
0.0
 23
0.0
 14
1.0
 24
1.0
 15
1.0
 25
1.0
 16
0.0
 26
0.0
 36
1.0
 17
0.0
 27
0.0
 37
0.0
 40
39.235
 41
1.36234
 42
50.0
 43
0.0
 44
0.0
 50
0.0
 51
0.0
 71
     0
 72
   100
 73
     1
 74
     0
 75
     0
 76
     0
 77
     0
 78
     0
  0
ENDTAB
  0
TABLE
  2
LTYPE
 70
     3
  0
LTYPE
  2
CONTINUOUS
 70
    64
  3
Solid line
 72
    65
 73
     0
 40
0.0
  0
LTYPE
  2
HIDDEN
 70
    64
  3
_ _ _ _ _ _ _ _ _ _ _ _ _ _ _ _ _ _ _ _ _ _ _
 72
    65
 73
     2
 40
0.375
 49
0.25
 49
-0.125
  0
LTYPE
  2
CENTER
 70
    64
  3
____ _ ____ _ ____ _ ____ _ ____ _ ____ _ ____
 72
    65
 73
     4
 40
2.0
 49
1.25
 49
-0.25
 49
0.25
 49
-0.25
  0
ENDTAB
  0
TABLE
  2
LAYER
 70
     7
  0
LAYER
  2
0
 70
    64
 62
     7
  6
CONTINUOUS
  0
LAYER
  2
OBJECT
 70
    64
 62
     7
  6
CONTINUOUS
  0
LAYER
  2
DIM
 70
    64
 62
     7
  6
CONTINUOUS
  0
LAYER
  2
HIDDEN
 70
    64
 62
     7
  6
HIDDEN
  0
LAYER
  2
TEXT
 70
    64
 62
     7
  6
CONTINUOUS
  0
LAYER
  2
TITLE
 70
    64
 62
     7
  6
CONTINUOUS
  0
LAYER
  2
CENTER
 70
    64
 62
     7
  6
CENTER
  0
ENDTAB
  0
TABLE
  2
STYLE
 70
     1
  0
STYLE
  2
STANDARD
 70
    64
 40
0.0
 41
0.75
 50
0.0
 71
     0
 42
0.313
  3
TXT.shx
  4

  0
ENDTAB
  0
TABLE
  2
VIEW
 70
     1
  0
VIEW
  2
FRONT
 70
     0
 40
39.235
 10
22.089329
 20
19.6175
 41
44.178658
 11
0.0
 21
0.0
 31
1.0
 12
0.0
 22
0.0
 32
0.0
 42
50.0
 43
0.0
 44
0.0
 50
0.0
 71
     0
  0
ENDTAB
  0
TABLE
  2
UCS
 70
     0
  0
ENDTAB
  0
TABLE
  2
APPID
 70
     1
  0
APPID
  2
ACAD
 70
    64
  0
ENDTAB
  0
TABLE
  2
DIMSTYLE
 70
     0
  0
ENDTAB
  0
ENDSEC
  0
SECTION
  2
BLOCKS
  0
BLOCK
  8
0
  2
HB
 70
     0
 10
0.0
 20
0.0
 30
0.0
  3
HB
  0
TEXT
  8
TEXT
 10
0.207833
 20
15.060079
 30
0.0
 40
0.125
  1
NAME
 72
     1
 11
0.437
 21
15.060079
 31
0.0
  0
TEXT
  8
TEXT
 10
0.207833
 20
15.268413
 30
0.0
 40
0.125
  1
PART
 72
     1
 11
0.437
 21
15.268413
 31
0.0
  0
TEXT
  8
TEXT
 10
5.372
 20
15.060079
 30
0.0
 40
0.125
  1
No.
 72
     1
 11
5.497
 21
15.060079
 31
0.0
  0
TEXT
  8
TEXT
 10
5.267833
 20
15.268413
 30
0.0
 40
0.125
  1
PART
 72
     1
 11
5.497
 21
15.268413
 31
0.0
  0
LINE
  8
TITLE
 10
5.872
 20
15.438
 30
0.0
 11
5.872
 21
15.02
 31
0.0
  0
LINE
  8
TITLE
 10
5.122
 20
15.438
 30
0.0
 11
5.122
 21
15.02
 31
0.0
  0
LINE
  8
TITLE
 10
5.06
 20
15.438
 30
0.0
 11
5.06
 21
15.02
 31
0.0
  0
LINE
  8
TITLE
 10
0.812
 20
15.02
 30
0.0
 11
0.812
 21
15.438
 31
0.0
  0
LINE
  8
TITLE
 10
0.062
 20
15.02
 30
0.0
 11
10.058
 21
15.02
 31
0.0
  0
LINE
  8
TITLE
 10
10.058
 20
0.062
 30
0.0
 11
0.062
 21
0.062
 31
0.0
  0
LINE
  8
TITLE
 10
10.058
 20
15.438
 30
0.0
 11
10.058
 21
0.062
 31
0.0
  0
LINE
  8
TITLE
 10
0.062
 20
15.438
 30
0.0
 11
10.058
 21
15.438
 31
0.0
  0
LINE
  8
TITLE
 10
0.062
 20
0.062
 30
0.0
 11
0.062
 21
15.438
 31
0.0
  0
LINE
  8
TITLE
 10
0.0
 20
0.0
 30
0.0
 11
0.0
 21
15.5
 31
0.0
  0
LINE
  8
TITLE
 10
10.12
 20
0.0
 30
0.0
 11
0.0
 21
0.0
 31
0.0
  0
LINE
  8
TITLE
 10
10.12
 20
15.5
 30
0.0
 11
10.12
 21
0.0
 31
0.0
  0
LINE
  8
TITLE
 10
0.0
 20
15.5
 30
0.0
 11
10.12
 21
15.5
 31
0.0
  0
ENDBLK
  8
0
  0
ENDSEC
  0
SECTION
  2
ENTITIES
  0
LINE
  8
OBJECT
 10
2.744505
 20
15.826213
 30
0.0
 11
14.019505
 21
15.826213
 31
0.0
  0
LINE
  8
OBJECT
 10
14.332005
 20
16.138713
 30
0.0
 11
14.332005
 21
21.393713
 31
0.0
  0
LINE
  8
OBJECT
 10
14.019505
 20
21.706213
 30
0.0
 11
2.744505
 21
21.706213
 31
0.0
  0
LINE
  8
OBJECT
 10
2.432005
 20
21.393713
 30
0.0
 11
2.432005
 21
16.138713
 31
0.0
  0
ARC
  8
OBJECT
 10
2.744505
 20
21.393713
 30
0.0
 40
0.3125
 50
90.0
 51
180.0
  0
ARC
  8
OBJECT
 10
2.744505
 20
16.138713
 30
0.0
 40
0.3125
 50
180.0
 51
270.0
  0
ARC
  8
OBJECT
 10
14.019505
 20
16.138713
 30
0.0
 40
0.3125
 50
270.0
 51
0.0
  0
ARC
  8
OBJECT
 10
14.019505
 20
21.393713
 30
0.0
 40
0.3125
 50
0.0
 51
90.0
  0
LINE
  8
OBJECT
 10
2.382005
 20
21.393713
 30
0.0
 11
2.382005
 21
16.138713
 31
0.0
  0
ARC
  8
OBJECT
 10
2.744505
 20
21.393713
 30
0.0
 40
0.3625
 50
90.0
 51
180.0
  0
LINE
  8
OBJECT
 10
14.019505
 20
21.756213
 30
0.0
 11
2.744505
 21
21.756213
 31
0.0
  0
ARC
  8
OBJECT
 10
14.019505
 20
21.393713
 30
0.0
 40
0.3625
 50
0.0
 51
90.0
  0
LINE
  8
OBJECT
 10
14.382005
 20
16.138713
 30
0.0
 11
14.382005
 21
21.393713
 31
0.0
  0
ARC
  8
OBJECT
 10
14.019505
 20
16.138713
 30
0.0
 40
0.3625
 50
270.0
 51
0.0
  0
LINE
  8
OBJECT
 10
2.744236
 20
15.776213
 30
0.0
 11
14.019505
 21
15.776213
 31
0.0
  0
ARC
  8
OBJECT
 10
2.744505
 20
16.138713
 30
0.0
 40
0.3625
 50
180.0
 51
270.0
  0
POINT
  8
OBJECT
 10
2.382005
 20
15.776213
 30
0.0
  0
POINT
  8
OBJECT
 10
2.382005
 20
21.756213
 30
0.0
  0
POINT
  8
OBJECT
 10
14.382005
 20
15.776213
 30
0.0
  0
POINT
  8
OBJECT
 10
14.382005
 20
21.756213
 30
0.0
  0
LINE
  8
OBJECT
 10
2.432005
 20
18.776213
 30
0.0
 11
2.442005
 21
18.776213
 31
0.0
  0
LINE
  8
OBJECT
 10
2.442005
 20
18.776213
 30
0.0
 11
2.442005
 21
19.126213
 31
0.0
  0
LINE
  8
OBJECT
 10
2.442005
 20
19.126213
 30
0.0
 11
2.492005
 21
19.126213
 31
0.0
  0
LINE
  8
OBJECT
 10
2.492005
 20
19.126213
 30
0.0
 11
2.492005
 21
18.711096
 31
0.0
  0
LINE
  8
OBJECT
 10
2.432005
 20
18.711096
 30
0.0
 11
2.492005
 21
18.711096
 31
0.0
  0
LINE
  8
CENTER
 10
4.011005
 20
21.355767
 30
0.0
 11
4.011005
 21
20.462483
 31
0.0
  0
LINE
  8
OBJECT
 10
3.948505
 20
21.213713
 30
0.0
 11
3.948505
 21
20.588713
 31
0.0
  0
LINE
  8
OBJECT
 10
4.073505
 20
20.588713
 30
0.0
 11
4.073505
 21
21.213713
 31
0.0
  0
ARC
  8
OBJECT
 10
4.011005
 20
21.213713
 30
0.0
 40
0.0625
 50
0.0
 51
180.0
  0
ARC
  8
OBJECT
 10
4.011005
 20
20.588713
 30
0.0
 40
0.0625
 50
180.0
 51
0.0
  0
ARC
  8
OBJECT
 10
4.261005
 20
20.588713
 30
0.0
 40
0.0625
 50
180.0
 51
0.0
  0
ARC
  8
OBJECT
 10
4.261005
 20
21.213713
 30
0.0
 40
0.0625
 50
0.0
 51
180.0
  0
LINE
  8
OBJECT
 10
4.323505
 20
20.588713
 30
0.0
 11
4.323505
 21
21.213713
 31
0.0
  0
LINE
  8
OBJECT
 10
4.198505
 20
21.213713
 30
0.0
 11
4.198505
 21
20.588713
 31
0.0
  0
LINE
  8
CENTER
 10
4.261005
 20
21.355767
 30
0.0
 11
4.261005
 21
20.462483
 31
0.0
  0
ARC
  8
OBJECT
 10
4.511005
 20
20.588713
 30
0.0
 40
0.0625
 50
180.0
 51
0.0
  0
ARC
  8
OBJECT
 10
4.511005
 20
21.213713
 30
0.0
 40
0.0625
 50
0.0
 51
180.0
  0
LINE
  8
OBJECT
 10
4.573505
 20
20.588713
 30
0.0
 11
4.573505
 21
21.213713
 31
0.0
  0
LINE
  8
OBJECT
 10
4.448505
 20
21.213713
 30
0.0
 11
4.448505
 21
20.588713
 31
0.0
  0
LINE
  8
CENTER
 10
4.511005
 20
21.355767
 30
0.0
 11
4.511005
 21
20.462483
 31
0.0
  0
ARC
  8
OBJECT
 10
4.761005
 20
20.588713
 30
0.0
 40
0.0625
 50
180.0
 51
0.0
  0
ARC
  8
OBJECT
 10
4.761005
 20
21.213713
 30
0.0
 40
0.0625
 50
0.0
 51
180.0
  0
LINE
  8
OBJECT
 10
4.823505
 20
20.588713
 30
0.0
 11
4.823505
 21
21.213713
 31
0.0
  0
LINE
  8
OBJECT
 10
4.698505
 20
21.213713
 30
0.0
 11
4.698505
 21
20.588713
 31
0.0
  0
LINE
  8
CENTER
 10
4.761005
 20
21.355767
 30
0.0
 11
4.761005
 21
20.462483
 31
0.0
  0
ARC
  8
OBJECT
 10
5.011005
 20
20.588713
 30
0.0
 40
0.0625
 50
180.0
 51
0.0
  0
ARC
  8
OBJECT
 10
5.011005
 20
21.213713
 30
0.0
 40
0.0625
 50
0.0
 51
180.0
  0
LINE
  8
OBJECT
 10
5.073505
 20
20.588713
 30
0.0
 11
5.073505
 21
21.213713
 31
0.0
  0
LINE
  8
OBJECT
 10
4.948505
 20
21.213713
 30
0.0
 11
4.948505
 21
20.588713
 31
0.0
  0
LINE
  8
CENTER
 10
5.011005
 20
21.355767
 30
0.0
 11
5.011005
 21
20.462483
 31
0.0
  0
ARC
  8
OBJECT
 10
5.261005
 20
20.588713
 30
0.0
 40
0.0625
 50
180.0
 51
0.0
  0
ARC
  8
OBJECT
 10
5.261005
 20
21.213713
 30
0.0
 40
0.0625
 50
0.0
 51
180.0
  0
LINE
  8
OBJECT
 10
5.323505
 20
20.588713
 30
0.0
 11
5.323505
 21
21.213713
 31
0.0
  0
LINE
  8
OBJECT
 10
5.198505
 20
21.213713
 30
0.0
 11
5.198505
 21
20.588713
 31
0.0
  0
LINE
  8
CENTER
 10
5.261005
 20
21.355767
 30
0.0
 11
5.261005
 21
20.462483
 31
0.0
  0
ARC
  8
OBJECT
 10
5.511005
 20
20.588713
 30
0.0
 40
0.0625
 50
180.0
 51
0.0
  0
ARC
  8
OBJECT
 10
5.511005
 20
21.213713
 30
0.0
 40
0.0625
 50
0.0
 51
180.0
  0
LINE
  8
OBJECT
 10
5.573505
 20
20.588713
 30
0.0
 11
5.573505
 21
21.213713
 31
0.0
  0
LINE
  8
OBJECT
 10
5.448505
 20
21.213713
 30
0.0
 11
5.448505
 21
20.588713
 31
0.0
  0
LINE
  8
CENTER
 10
5.511005
 20
21.355767
 30
0.0
 11
5.511005
 21
20.462483
 31
0.0
  0
ARC
  8
OBJECT
 10
5.761005
 20
20.588713
 30
0.0
 40
0.0625
 50
180.0
 51
0.0
  0
ARC
  8
OBJECT
 10
5.761005
 20
21.213713
 30
0.0
 40
0.0625
 50
0.0
 51
180.0
  0
LINE
  8
OBJECT
 10
5.823505
 20
20.588713
 30
0.0
 11
5.823505
 21
21.213713
 31
0.0
  0
LINE
  8
OBJECT
 10
5.698505
 20
21.213713
 30
0.0
 11
5.698505
 21
20.588713
 31
0.0
  0
LINE
  8
CENTER
 10
5.761005
 20
21.355767
 30
0.0
 11
5.761005
 21
20.462483
 31
0.0
  0
ARC
  8
OBJECT
 10
6.011005
 20
20.588713
 30
0.0
 40
0.0625
 50
180.0
 51
0.0
  0
ARC
  8
OBJECT
 10
6.011005
 20
21.213713
 30
0.0
 40
0.0625
 50
0.0
 51
180.0
  0
LINE
  8
OBJECT
 10
6.073505
 20
20.588713
 30
0.0
 11
6.073505
 21
21.213713
 31
0.0
  0
LINE
  8
OBJECT
 10
5.948505
 20
21.213713
 30
0.0
 11
5.948505
 21
20.588713
 31
0.0
  0
LINE
  8
CENTER
 10
6.011005
 20
21.355767
 30
0.0
 11
6.011005
 21
20.462483
 31
0.0
  0
ARC
  8
OBJECT
 10
6.261005
 20
20.588713
 30
0.0
 40
0.0625
 50
180.0
 51
0.0
  0
ARC
  8
OBJECT
 10
6.261005
 20
21.213713
 30
0.0
 40
0.0625
 50
0.0
 51
180.0
  0
LINE
  8
OBJECT
 10
6.323505
 20
20.588713
 30
0.0
 11
6.323505
 21
21.213713
 31
0.0
  0
LINE
  8
OBJECT
 10
6.198505
 20
21.213713
 30
0.0
 11
6.198505
 21
20.588713
 31
0.0
  0
LINE
  8
CENTER
 10
6.261005
 20
21.355767
 30
0.0
 11
6.261005
 21
20.462483
 31
0.0
  0
ARC
  8
OBJECT
 10
6.511005
 20
20.588713
 30
0.0
 40
0.0625
 50
180.0
 51
0.0
  0
ARC
  8
OBJECT
 10
6.511005
 20
21.213713
 30
0.0
 40
0.0625
 50
0.0
 51
180.0
  0
LINE
  8
OBJECT
 10
6.573505
 20
20.588713
 30
0.0
 11
6.573505
 21
21.213713
 31
0.0
  0
LINE
  8
OBJECT
 10
6.448505
 20
21.213713
 30
0.0
 11
6.448505
 21
20.588713
 31
0.0
  0
LINE
  8
CENTER
 10
6.511005
 20
21.355767
 30
0.0
 11
6.511005
 21
20.462483
 31
0.0
  0
ARC
  8
OBJECT
 10
6.761005
 20
20.588713
 30
0.0
 40
0.0625
 50
180.0
 51
0.0
  0
ARC
  8
OBJECT
 10
6.761005
 20
21.213713
 30
0.0
 40
0.0625
 50
0.0
 51
180.0
  0
LINE
  8
OBJECT
 10
6.823505
 20
20.588713
 30
0.0
 11
6.823505
 21
21.213713
 31
0.0
  0
LINE
  8
OBJECT
 10
6.698505
 20
21.213713
 30
0.0
 11
6.698505
 21
20.588713
 31
0.0
  0
LINE
  8
CENTER
 10
6.761005
 20
21.355767
 30
0.0
 11
6.761005
 21
20.462483
 31
0.0
  0
ARC
  8
OBJECT
 10
7.011005
 20
20.588713
 30
0.0
 40
0.0625
 50
180.0
 51
0.0
  0
ARC
  8
OBJECT
 10
7.011005
 20
21.213713
 30
0.0
 40
0.0625
 50
0.0
 51
180.0
  0
LINE
  8
OBJECT
 10
7.073505
 20
20.588713
 30
0.0
 11
7.073505
 21
21.213713
 31
0.0
  0
LINE
  8
OBJECT
 10
6.948505
 20
21.213713
 30
0.0
 11
6.948505
 21
20.588713
 31
0.0
  0
LINE
  8
CENTER
 10
7.011005
 20
21.355767
 30
0.0
 11
7.011005
 21
20.462483
 31
0.0
  0
ARC
  8
OBJECT
 10
7.261005
 20
20.588713
 30
0.0
 40
0.0625
 50
180.0
 51
0.0
  0
ARC
  8
OBJECT
 10
7.261005
 20
21.213713
 30
0.0
 40
0.0625
 50
0.0
 51
180.0
  0
LINE
  8
OBJECT
 10
7.323505
 20
20.588713
 30
0.0
 11
7.323505
 21
21.213713
 31
0.0
  0
LINE
  8
OBJECT
 10
7.198505
 20
21.213713
 30
0.0
 11
7.198505
 21
20.588713
 31
0.0
  0
LINE
  8
CENTER
 10
7.261005
 20
21.355767
 30
0.0
 11
7.261005
 21
20.462483
 31
0.0
  0
ARC
  8
OBJECT
 10
7.511005
 20
20.588713
 30
0.0
 40
0.0625
 50
180.0
 51
0.0
  0
ARC
  8
OBJECT
 10
7.511005
 20
21.213713
 30
0.0
 40
0.0625
 50
0.0
 51
180.0
  0
LINE
  8
OBJECT
 10
7.573505
 20
20.588713
 30
0.0
 11
7.573505
 21
21.213713
 31
0.0
  0
LINE
  8
OBJECT
 10
7.448505
 20
21.213713
 30
0.0
 11
7.448505
 21
20.588713
 31
0.0
  0
LINE
  8
CENTER
 10
7.511005
 20
21.355767
 30
0.0
 11
7.511005
 21
20.462483
 31
0.0
  0
ARC
  8
OBJECT
 10
7.761005
 20
20.588713
 30
0.0
 40
0.0625
 50
180.0
 51
0.0
  0
ARC
  8
OBJECT
 10
7.761005
 20
21.213713
 30
0.0
 40
0.0625
 50
0.0
 51
180.0
  0
LINE
  8
OBJECT
 10
7.823505
 20
20.588713
 30
0.0
 11
7.823505
 21
21.213713
 31
0.0
  0
LINE
  8
OBJECT
 10
7.698505
 20
21.213713
 30
0.0
 11
7.698505
 21
20.588713
 31
0.0
  0
LINE
  8
CENTER
 10
7.761005
 20
21.355767
 30
0.0
 11
7.761005
 21
20.462483
 31
0.0
  0
ARC
  8
OBJECT
 10
8.011005
 20
20.588713
 30
0.0
 40
0.0625
 50
180.0
 51
0.0
  0
ARC
  8
OBJECT
 10
8.011005
 20
21.213713
 30
0.0
 40
0.0625
 50
0.0
 51
180.0
  0
LINE
  8
OBJECT
 10
8.073505
 20
20.588713
 30
0.0
 11
8.073505
 21
21.213713
 31
0.0
  0
LINE
  8
OBJECT
 10
7.948505
 20
21.213713
 30
0.0
 11
7.948505
 21
20.588713
 31
0.0
  0
LINE
  8
CENTER
 10
8.011005
 20
21.355767
 30
0.0
 11
8.011005
 21
20.462483
 31
0.0
  0
ARC
  8
OBJECT
 10
8.261005
 20
21.213713
 30
0.0
 40
0.0625
 50
0.0
 51
180.0
  0
LINE
  8
OBJECT
 10
8.198505
 20
21.213713
 30
0.0
 11
8.198505
 21
20.588713
 31
0.0
  0
LINE
  8
CENTER
 10
8.261005
 20
21.355767
 30
0.0
 11
8.261005
 21
21.038963
 31
0.0
  0
LINE
  8
OBJECT
 10
14.326774
 20
28.127624
 30
0.0
 11
2.437235
 21
28.127624
 31
0.0
  0
LINE
  8
OBJECT
 10
14.382005
 20
28.172396
 30
0.0
 11
14.382005
 21
36.082853
 31
0.0
  0
LINE
  8
OBJECT
 10
14.326774
 20
36.127624
 30
0.0
 11
2.382005
 21
36.127624
 31
0.0
  0
LINE
  8
OBJECT
 10
2.382005
 20
36.127624
 30
0.0
 11
2.382005
 21
28.172396
 31
0.0
  0
LINE
  8
OBJECT
 10
18.135285
 20
28.127624
 30
0.0
 11
18.135285
 21
36.127624
 31
0.0
  0
LINE
  8
OBJECT
 10
24.135285
 20
28.127624
 30
0.0
 11
24.135285
 21
36.127624
 31
0.0
  0
LINE
  8
OBJECT
 10
24.135285
 20
28.127624
 30
0.0
 11
18.135285
 21
28.127624
 31
0.0
  0
LINE
  8
OBJECT
 10
18.135285
 20
36.127624
 30
0.0
 11
24.135285
 21
36.127624
 31
0.0
  0
ARC
  8
OBJECT
 10
5.42035
 20
17.210141
 30
0.0
 40
3.091235
 50
332.362943
 51
14.290236
  0
ARC
  8
OBJECT
 10
16.860574
 20
20.124142
 30
0.0
 40
8.714277
 50
180.16415
 51
194.290236
  0
ARC
  8
OBJECT
 10
11.964984
 20
20.110116
 30
0.0
 40
3.818667
 50
154.464782
 51
180.16415
  0
ARC
  8
OBJECT
 10
24.138922
 20
26.871251
 30
0.0
 40
5.255002
 50
90.039652
 51
115.156422
  0
ARC
  8
OBJECT
 10
21.197863
 20
33.133679
 30
0.0
 40
1.663656
 50
218.854344
 51
295.156422
  0
ARC
  8
OBJECT
 10
18.320775
 20
30.815945
 30
0.0
 40
2.03087
 50
38.854344
 51
95.240437
  0
LINE
  8
CENTER
 10
8.413483
 20
20.901213
 30
0.0
 11
3.656684
 21
20.901213
 31
0.0
  0
LINE
  8
OBJECT
 10
2.432005
 20
21.393713
 30
0.0
 11
2.67888
 21
21.393713
 31
0.0
  0
LINE
  8
OBJECT
 10
2.432005
 20
16.138713
 30
0.0
 11
2.67888
 21
16.138713
 31
0.0
  0
LINE
  8
OBJECT
 10
2.67888
 20
21.393713
 30
0.0
 11
2.67888
 21
16.138713
 31
0.0
  0
LINE
  8
OBJECT
 10
2.432005
 20
36.127624
 30
0.0
 11
2.432005
 21
28.177624
 31
0.0
  0
LINE
  8
OBJECT
 10
2.67888
 20
28.957312
 30
0.0
 11
2.67888
 21
29.497312
 31
0.0
  0
LINE
  8
OBJECT
 10
2.62888
 20
29.497312
 30
0.0
 11
2.67888
 21
29.497312
 31
0.0
  0
LINE
  8
OBJECT
 10
2.62888
 20
29.497312
 30
0.0
 11
2.62888
 21
29.007312
 31
0.0
  0
LINE
  8
OBJECT
 10
2.67888
 20
28.957312
 30
0.0
 11
2.482005
 21
28.957312
 31
0.0
  0
LINE
  8
OBJECT
 10
2.62888
 20
29.007312
 30
0.0
 11
2.432005
 21
29.007312
 31
0.0
  0
LINE
  8
OBJECT
 10
2.62888
 20
21.393713
 30
0.0
 11
2.62888
 21
16.138713
 31
0.0
  0
LINE
  8
OBJECT
 10
2.482005
 20
28.957312
 30
0.0
 11
2.482005
 21
28.557312
 31
0.0
  0
LINE
  8
HIDDEN
 10
14.282005
 20
28.557312
 30
0.0
 11
8.227587
 21
28.557312
 31
0.0
  0
LINE
  8
HIDDEN
 10
14.332005
 20
28.507312
 30
0.0
 11
8.213242
 21
28.507312
 31
0.0
  0
LINE
  8
OBJECT
 10
2.432005
 20
28.507312
 30
0.0
 11
2.432005
 21
29.007312
 31
0.0
  0
LINE
  8
OBJECT
 10
2.432005
 20
28.177624
 30
0.0
 11
2.447333
 21
28.177624
 31
0.0
  0
LINE
  8
OBJECT
 10
2.447333
 20
28.177624
 30
0.0
 11
2.447333
 21
28.49258
 31
0.0
  0
LINE
  8
OBJECT
 10
2.497333
 20
28.176341
 30
0.0
 11
2.497333
 21
28.49258
 31
0.0
  0
ARC
  8
OBJECT
 10
2.439252
 20
28.186564
 30
0.0
 40
0.058974
 50
193.90105
 51
350.017405
  0
LINE
  8
OBJECT
 10
2.447333
 20
28.49258
 30
0.0
 11
2.497333
 21
28.49258
 31
0.0
  0
LINE
  8
OBJECT
 10
2.447333
 20
35.762669
 30
0.0
 11
2.497333
 21
35.762669
 31
0.0
  0
ARC
  8
OBJECT
 10
2.439252
 20
36.068685
 30
0.0
 40
0.058974
 50
9.982595
 51
166.09895
  0
LINE
  8
OBJECT
 10
2.497333
 20
36.078908
 30
0.0
 11
2.497333
 21
35.762669
 31
0.0
  0
LINE
  8
OBJECT
 10
2.447333
 20
36.077624
 30
0.0
 11
2.447333
 21
35.762669
 31
0.0
  0
LINE
  8
OBJECT
 10
2.432005
 20
36.077624
 30
0.0
 11
2.447333
 21
36.077624
 31
0.0
  0
LINE
  8
OBJECT
 10
2.432005
 20
35.747937
 30
0.0
 11
2.432005
 21
35.247937
 31
0.0
  0
LINE
  8
OBJECT
 10
2.482005
 20
35.297937
 30
0.0
 11
2.482005
 21
35.697937
 31
0.0
  0
LINE
  8
OBJECT
 10
2.62888
 20
35.247937
 30
0.0
 11
2.432005
 21
35.247937
 31
0.0
  0
LINE
  8
OBJECT
 10
2.67888
 20
35.297937
 30
0.0
 11
2.482005
 21
35.297937
 31
0.0
  0
LINE
  8
OBJECT
 10
2.62888
 20
34.757937
 30
0.0
 11
2.62888
 21
35.247937
 31
0.0
  0
LINE
  8
OBJECT
 10
2.62888
 20
34.757937
 30
0.0
 11
2.67888
 21
34.757937
 31
0.0
  0
LINE
  8
OBJECT
 10
2.67888
 20
35.297937
 30
0.0
 11
2.67888
 21
34.757937
 31
0.0
  0
LINE
  8
HIDDEN
 10
14.316677
 20
28.49258
 30
0.0
 11
14.266677
 21
28.49258
 31
0.0
  0
ARC
  8
HIDDEN
 10
14.324758
 20
28.186564
 30
0.0
 40
0.058974
 50
189.982595
 51
346.09895
  0
LINE
  8
HIDDEN
 10
14.266677
 20
28.176341
 30
0.0
 11
14.266677
 21
28.49258
 31
0.0
  0
LINE
  8
HIDDEN
 10
14.316677
 20
28.177624
 30
0.0
 11
14.316677
 21
28.49258
 31
0.0
  0
LINE
  8
HIDDEN
 10
14.332005
 20
28.177624
 30
0.0
 11
14.316677
 21
28.177624
 31
0.0
  0
LINE
  8
HIDDEN
 10
14.332005
 20
28.507312
 30
0.0
 11
14.332005
 21
29.007312
 31
0.0
  0
LINE
  8
HIDDEN
 10
14.282005
 20
28.957312
 30
0.0
 11
14.282005
 21
28.557312
 31
0.0
  0
LINE
  8
HIDDEN
 10
14.13513
 20
29.007312
 30
0.0
 11
14.332005
 21
29.007312
 31
0.0
  0
LINE
  8
HIDDEN
 10
14.08513
 20
28.957312
 30
0.0
 11
14.282005
 21
28.957312
 31
0.0
  0
LINE
  8
HIDDEN
 10
14.13513
 20
29.497312
 30
0.0
 11
14.13513
 21
29.007312
 31
0.0
  0
LINE
  8
HIDDEN
 10
14.13513
 20
29.497312
 30
0.0
 11
14.08513
 21
29.497312
 31
0.0
  0
LINE
  8
HIDDEN
 10
14.08513
 20
28.957312
 30
0.0
 11
14.08513
 21
29.497312
 31
0.0
  0
LINE
  8
HIDDEN
 10
14.08513
 20
35.297937
 30
0.0
 11
14.08513
 21
34.757937
 31
0.0
  0
LINE
  8
HIDDEN
 10
14.13513
 20
34.757937
 30
0.0
 11
14.08513
 21
34.757937
 31
0.0
  0
LINE
  8
HIDDEN
 10
14.13513
 20
34.757937
 30
0.0
 11
14.13513
 21
35.247937
 31
0.0
  0
LINE
  8
HIDDEN
 10
14.08513
 20
35.297937
 30
0.0
 11
14.282005
 21
35.297937
 31
0.0
  0
LINE
  8
HIDDEN
 10
14.13513
 20
35.247937
 30
0.0
 11
14.332005
 21
35.247937
 31
0.0
  0
LINE
  8
HIDDEN
 10
14.282005
 20
35.297937
 30
0.0
 11
14.282005
 21
35.697937
 31
0.0
  0
LINE
  8
HIDDEN
 10
14.332005
 20
35.747937
 30
0.0
 11
14.332005
 21
35.247937
 31
0.0
  0
LINE
  8
HIDDEN
 10
14.332005
 20
36.077624
 30
0.0
 11
14.316677
 21
36.077624
 31
0.0
  0
LINE
  8
HIDDEN
 10
14.316677
 20
36.077624
 30
0.0
 11
14.316677
 21
35.762669
 31
0.0
  0
LINE
  8
HIDDEN
 10
14.266677
 20
36.078908
 30
0.0
 11
14.266677
 21
35.762669
 31
0.0
  0
ARC
  8
HIDDEN
 10
14.324758
 20
36.068685
 30
0.0
 40
0.058974
 50
13.90105
 51
170.017405
  0
LINE
  8
HIDDEN
 10
14.316677
 20
35.762669
 30
0.0
 11
14.266677
 21
35.762669
 31
0.0
  0
LINE
  8
HIDDEN
 10
14.332005
 20
35.747937
 30
0.0
 11
8.573856
 21
35.747937
 31
0.0
  0
LINE
  8
HIDDEN
 10
14.282005
 20
35.697937
 30
0.0
 11
8.5595
 21
35.697937
 31
0.0
  0
LINE
  8
CENTER
 10
2.785138
 20
28.757312
 30
0.0
 11
2.087961
 21
28.757312
 31
0.0
  0
LINE
  8
HIDDEN
 10
2.382005
 20
28.811812
 30
0.0
 11
2.482005
 21
28.811812
 31
0.0
  0
LINE
  8
HIDDEN
 10
2.382005
 20
28.702812
 30
0.0
 11
2.482005
 21
28.702812
 31
0.0
  0
LINE
  8
HIDDEN
 10
2.382005
 20
35.552437
 30
0.0
 11
2.482005
 21
35.552437
 31
0.0
  0
LINE
  8
HIDDEN
 10
2.382005
 20
35.443437
 30
0.0
 11
2.482005
 21
35.443437
 31
0.0
  0
LINE
  8
CENTER
 10
2.785138
 20
35.497937
 30
0.0
 11
2.087961
 21
35.497937
 31
0.0
  0
LINE
  8
CENTER
 10
8.413483
 20
34.74074
 30
0.0
 11
3.761339
 21
34.74074
 31
0.0
  0
ARC
  8
OBJECT
 10
11.964984
 20
33.949643
 30
0.0
 40
3.818667
 50
154.464782
 51
180.16415
  0
LINE
  8
CENTER
 10
8.261005
 20
35.195295
 30
0.0
 11
8.261005
 21
34.878491
 31
0.0
  0
LINE
  8
OBJECT
 10
8.198505
 20
35.05324
 30
0.0
 11
8.198505
 21
34.42824
 31
0.0
  0
ARC
  8
OBJECT
 10
8.261005
 20
35.05324
 30
0.0
 40
0.0625
 50
0.0
 51
180.0
  0
LINE
  8
CENTER
 10
8.011005
 20
35.195295
 30
0.0
 11
8.011005
 21
34.302011
 31
0.0
  0
LINE
  8
OBJECT
 10
7.948505
 20
35.05324
 30
0.0
 11
7.948505
 21
34.42824
 31
0.0
  0
LINE
  8
OBJECT
 10
8.073505
 20
34.42824
 30
0.0
 11
8.073505
 21
35.05324
 31
0.0
  0
ARC
  8
OBJECT
 10
8.011005
 20
35.05324
 30
0.0
 40
0.0625
 50
0.0
 51
180.0
  0
ARC
  8
OBJECT
 10
8.011005
 20
34.42824
 30
0.0
 40
0.0625
 50
180.0
 51
0.0
  0
LINE
  8
CENTER
 10
7.761005
 20
35.195295
 30
0.0
 11
7.761005
 21
34.302011
 31
0.0
  0
LINE
  8
OBJECT
 10
7.698505
 20
35.05324
 30
0.0
 11
7.698505
 21
34.42824
 31
0.0
  0
LINE
  8
OBJECT
 10
7.823505
 20
34.42824
 30
0.0
 11
7.823505
 21
35.05324
 31
0.0
  0
ARC
  8
OBJECT
 10
7.761005
 20
35.05324
 30
0.0
 40
0.0625
 50
0.0
 51
180.0
  0
ARC
  8
OBJECT
 10
7.761005
 20
34.42824
 30
0.0
 40
0.0625
 50
180.0
 51
0.0
  0
LINE
  8
CENTER
 10
7.511005
 20
35.195295
 30
0.0
 11
7.511005
 21
34.302011
 31
0.0
  0
LINE
  8
OBJECT
 10
7.448505
 20
35.05324
 30
0.0
 11
7.448505
 21
34.42824
 31
0.0
  0
LINE
  8
OBJECT
 10
7.573505
 20
34.42824
 30
0.0
 11
7.573505
 21
35.05324
 31
0.0
  0
ARC
  8
OBJECT
 10
7.511005
 20
35.05324
 30
0.0
 40
0.0625
 50
0.0
 51
180.0
  0
ARC
  8
OBJECT
 10
7.511005
 20
34.42824
 30
0.0
 40
0.0625
 50
180.0
 51
0.0
  0
LINE
  8
CENTER
 10
7.261005
 20
35.195295
 30
0.0
 11
7.261005
 21
34.302011
 31
0.0
  0
LINE
  8
OBJECT
 10
7.198505
 20
35.05324
 30
0.0
 11
7.198505
 21
34.42824
 31
0.0
  0
LINE
  8
OBJECT
 10
7.323505
 20
34.42824
 30
0.0
 11
7.323505
 21
35.05324
 31
0.0
  0
ARC
  8
OBJECT
 10
7.261005
 20
35.05324
 30
0.0
 40
0.0625
 50
0.0
 51
180.0
  0
ARC
  8
OBJECT
 10
7.261005
 20
34.42824
 30
0.0
 40
0.0625
 50
180.0
 51
0.0
  0
LINE
  8
CENTER
 10
7.011005
 20
35.195295
 30
0.0
 11
7.011005
 21
34.302011
 31
0.0
  0
LINE
  8
OBJECT
 10
6.948505
 20
35.05324
 30
0.0
 11
6.948505
 21
34.42824
 31
0.0
  0
LINE
  8
OBJECT
 10
7.073505
 20
34.42824
 30
0.0
 11
7.073505
 21
35.05324
 31
0.0
  0
ARC
  8
OBJECT
 10
7.011005
 20
35.05324
 30
0.0
 40
0.0625
 50
0.0
 51
180.0
  0
ARC
  8
OBJECT
 10
7.011005
 20
34.42824
 30
0.0
 40
0.0625
 50
180.0
 51
0.0
  0
LINE
  8
CENTER
 10
6.761005
 20
35.195295
 30
0.0
 11
6.761005
 21
34.302011
 31
0.0
  0
LINE
  8
OBJECT
 10
6.698505
 20
35.05324
 30
0.0
 11
6.698505
 21
34.42824
 31
0.0
  0
LINE
  8
OBJECT
 10
6.823505
 20
34.42824
 30
0.0
 11
6.823505
 21
35.05324
 31
0.0
  0
ARC
  8
OBJECT
 10
6.761005
 20
35.05324
 30
0.0
 40
0.0625
 50
0.0
 51
180.0
  0
ARC
  8
OBJECT
 10
6.761005
 20
34.42824
 30
0.0
 40
0.0625
 50
180.0
 51
0.0
  0
LINE
  8
CENTER
 10
6.511005
 20
35.195295
 30
0.0
 11
6.511005
 21
34.302011
 31
0.0
  0
LINE
  8
OBJECT
 10
6.448505
 20
35.05324
 30
0.0
 11
6.448505
 21
34.42824
 31
0.0
  0
LINE
  8
OBJECT
 10
6.573505
 20
34.42824
 30
0.0
 11
6.573505
 21
35.05324
 31
0.0
  0
ARC
  8
OBJECT
 10
6.511005
 20
35.05324
 30
0.0
 40
0.0625
 50
0.0
 51
180.0
  0
ARC
  8
OBJECT
 10
6.511005
 20
34.42824
 30
0.0
 40
0.0625
 50
180.0
 51
0.0
  0
LINE
  8
CENTER
 10
6.261005
 20
35.195295
 30
0.0
 11
6.261005
 21
34.302011
 31
0.0
  0
LINE
  8
OBJECT
 10
6.198505
 20
35.05324
 30
0.0
 11
6.198505
 21
34.42824
 31
0.0
  0
LINE
  8
OBJECT
 10
6.323505
 20
34.42824
 30
0.0
 11
6.323505
 21
35.05324
 31
0.0
  0
ARC
  8
OBJECT
 10
6.261005
 20
35.05324
 30
0.0
 40
0.0625
 50
0.0
 51
180.0
  0
ARC
  8
OBJECT
 10
6.261005
 20
34.42824
 30
0.0
 40
0.0625
 50
180.0
 51
0.0
  0
LINE
  8
CENTER
 10
6.011005
 20
35.195295
 30
0.0
 11
6.011005
 21
34.302011
 31
0.0
  0
LINE
  8
OBJECT
 10
5.948505
 20
35.05324
 30
0.0
 11
5.948505
 21
34.42824
 31
0.0
  0
LINE
  8
OBJECT
 10
6.073505
 20
34.42824
 30
0.0
 11
6.073505
 21
35.05324
 31
0.0
  0
ARC
  8
OBJECT
 10
6.011005
 20
35.05324
 30
0.0
 40
0.0625
 50
0.0
 51
180.0
  0
ARC
  8
OBJECT
 10
6.011005
 20
34.42824
 30
0.0
 40
0.0625
 50
180.0
 51
0.0
  0
LINE
  8
CENTER
 10
5.761005
 20
35.195295
 30
0.0
 11
5.761005
 21
34.302011
 31
0.0
  0
LINE
  8
OBJECT
 10
5.698505
 20
35.05324
 30
0.0
 11
5.698505
 21
34.42824
 31
0.0
  0
LINE
  8
OBJECT
 10
5.823505
 20
34.42824
 30
0.0
 11
5.823505
 21
35.05324
 31
0.0
  0
ARC
  8
OBJECT
 10
5.761005
 20
35.05324
 30
0.0
 40
0.0625
 50
0.0
 51
180.0
  0
ARC
  8
OBJECT
 10
5.761005
 20
34.42824
 30
0.0
 40
0.0625
 50
180.0
 51
0.0
  0
LINE
  8
CENTER
 10
5.511005
 20
35.195295
 30
0.0
 11
5.511005
 21
34.302011
 31
0.0
  0
LINE
  8
OBJECT
 10
5.448505
 20
35.05324
 30
0.0
 11
5.448505
 21
34.42824
 31
0.0
  0
LINE
  8
OBJECT
 10
5.573505
 20
34.42824
 30
0.0
 11
5.573505
 21
35.05324
 31
0.0
  0
ARC
  8
OBJECT
 10
5.511005
 20
35.05324
 30
0.0
 40
0.0625
 50
0.0
 51
180.0
  0
ARC
  8
OBJECT
 10
5.511005
 20
34.42824
 30
0.0
 40
0.0625
 50
180.0
 51
0.0
  0
LINE
  8
CENTER
 10
5.261005
 20
35.195295
 30
0.0
 11
5.261005
 21
34.302011
 31
0.0
  0
LINE
  8
OBJECT
 10
5.198505
 20
35.05324
 30
0.0
 11
5.198505
 21
34.42824
 31
0.0
  0
LINE
  8
OBJECT
 10
5.323505
 20
34.42824
 30
0.0
 11
5.323505
 21
35.05324
 31
0.0
  0
ARC
  8
OBJECT
 10
5.261005
 20
35.05324
 30
0.0
 40
0.0625
 50
0.0
 51
180.0
  0
ARC
  8
OBJECT
 10
5.261005
 20
34.42824
 30
0.0
 40
0.0625
 50
180.0
 51
0.0
  0
LINE
  8
CENTER
 10
5.011005
 20
35.195295
 30
0.0
 11
5.011005
 21
34.302011
 31
0.0
  0
LINE
  8
OBJECT
 10
4.948505
 20
35.05324
 30
0.0
 11
4.948505
 21
34.42824
 31
0.0
  0
LINE
  8
OBJECT
 10
5.073505
 20
34.42824
 30
0.0
 11
5.073505
 21
35.05324
 31
0.0
  0
ARC
  8
OBJECT
 10
5.011005
 20
35.05324
 30
0.0
 40
0.0625
 50
0.0
 51
180.0
  0
ARC
  8
OBJECT
 10
5.011005
 20
34.42824
 30
0.0
 40
0.0625
 50
180.0
 51
0.0
  0
LINE
  8
CENTER
 10
4.761005
 20
35.195295
 30
0.0
 11
4.761005
 21
34.302011
 31
0.0
  0
LINE
  8
OBJECT
 10
4.698505
 20
35.05324
 30
0.0
 11
4.698505
 21
34.42824
 31
0.0
  0
LINE
  8
OBJECT
 10
4.823505
 20
34.42824
 30
0.0
 11
4.823505
 21
35.05324
 31
0.0
  0
ARC
  8
OBJECT
 10
4.761005
 20
35.05324
 30
0.0
 40
0.0625
 50
0.0
 51
180.0
  0
ARC
  8
OBJECT
 10
4.761005
 20
34.42824
 30
0.0
 40
0.0625
 50
180.0
 51
0.0
  0
LINE
  8
CENTER
 10
4.511005
 20
35.195295
 30
0.0
 11
4.511005
 21
34.302011
 31
0.0
  0
LINE
  8
OBJECT
 10
4.448505
 20
35.05324
 30
0.0
 11
4.448505
 21
34.42824
 31
0.0
  0
LINE
  8
OBJECT
 10
4.573505
 20
34.42824
 30
0.0
 11
4.573505
 21
35.05324
 31
0.0
  0
ARC
  8
OBJECT
 10
4.511005
 20
35.05324
 30
0.0
 40
0.0625
 50
0.0
 51
180.0
  0
ARC
  8
OBJECT
 10
4.511005
 20
34.42824
 30
0.0
 40
0.0625
 50
180.0
 51
0.0
  0
LINE
  8
CENTER
 10
4.261005
 20
35.195295
 30
0.0
 11
4.261005
 21
34.302011
 31
0.0
  0
LINE
  8
OBJECT
 10
4.198505
 20
35.05324
 30
0.0
 11
4.198505
 21
34.42824
 31
0.0
  0
LINE
  8
OBJECT
 10
4.323505
 20
34.42824
 30
0.0
 11
4.323505
 21
35.05324
 31
0.0
  0
ARC
  8
OBJECT
 10
4.261005
 20
35.05324
 30
0.0
 40
0.0625
 50
0.0
 51
180.0
  0
ARC
  8
OBJECT
 10
4.261005
 20
34.42824
 30
0.0
 40
0.0625
 50
180.0
 51
0.0
  0
ARC
  8
OBJECT
 10
4.011005
 20
34.42824
 30
0.0
 40
0.0625
 50
180.0
 51
0.0
  0
ARC
  8
OBJECT
 10
4.011005
 20
35.05324
 30
0.0
 40
0.0625
 50
0.0
 51
180.0
  0
LINE
  8
OBJECT
 10
4.073505
 20
34.42824
 30
0.0
 11
4.073505
 21
35.05324
 31
0.0
  0
LINE
  8
OBJECT
 10
3.948505
 20
35.05324
 30
0.0
 11
3.948505
 21
34.42824
 31
0.0
  0
LINE
  8
CENTER
 10
4.011005
 20
35.195295
 30
0.0
 11
4.011005
 21
34.302011
 31
0.0
  0
ARC
  8
OBJECT
 10
7.747887
 20
35.958022
 30
0.0
 40
0.852268
 50
334.844332
 51
334.844332
  0
ARC
  8
OBJECT
 10
15.616316
 20
32.825346
 30
0.0
 40
7.552498
 50
171.522801
 51
193.560606
  0
ARC
  8
OBJECT
 10
3.469123
 20
29.89547
 30
0.0
 40
4.94304
 50
339.044466
 51
344.293151
  0
LINE
  8
OBJECT
 10
2.492005
 20
35.109095
 30
0.0
 11
2.432005
 21
35.109095
 31
0.0
  0
LINE
  8
OBJECT
 10
2.492005
 20
29.146154
 30
0.0
 11
2.492005
 21
35.109095
 31
0.0
  0
LINE
  8
OBJECT
 10
2.492005
 20
29.146154
 30
0.0
 11
2.432005
 21
29.146154
 31
0.0
  0
LINE
  8
HIDDEN
 10
14.272005
 20
29.146154
 30
0.0
 11
14.332005
 21
29.146154
 31
0.0
  0
LINE
  8
HIDDEN
 10
14.272005
 20
29.146154
 30
0.0
 11
14.272005
 21
35.109095
 31
0.0
  0
LINE
  8
HIDDEN
 10
14.272005
 20
35.109095
 30
0.0
 11
14.332005
 21
35.109095
 31
0.0
  0
LINE
  8
HIDDEN
 10
14.332005
 20
28.127624
 30
0.0
 11
14.332005
 21
36.127624
 31
0.0
  0
LINE
  8
OBJECT
 10
18.372285
 20
29.497312
 30
0.0
 11
23.898285
 21
29.497312
 31
0.0
  0
LINE
  8
OBJECT
 10
18.372285
 20
28.957312
 30
0.0
 11
23.898285
 21
28.957312
 31
0.0
  0
LINE
  8
OBJECT
 10
18.372285
 20
28.768731
 30
0.0
 11
18.372285
 21
29.497312
 31
0.0
  0
LINE
  8
OBJECT
 10
18.135285
 20
28.557312
 30
0.0
 11
24.135285
 21
28.557312
 31
0.0
  0
LINE
  8
OBJECT
 10
18.372285
 20
28.768731
 30
0.0
 11
18.440273
 21
28.768731
 31
0.0
  0
LINE
  8
OBJECT
 10
18.440273
 20
28.768731
 30
0.0
 11
18.440273
 21
28.557312
 31
0.0
  0
LINE
  8
OBJECT
 10
23.830297
 20
28.768731
 30
0.0
 11
23.830297
 21
28.557312
 31
0.0
  0
LINE
  8
OBJECT
 10
23.898285
 20
28.768731
 30
0.0
 11
23.830297
 21
28.768731
 31
0.0
  0
LINE
  8
OBJECT
 10
23.898285
 20
28.768731
 30
0.0
 11
23.898285
 21
29.497312
 31
0.0
  0
LINE
  8
OBJECT
 10
18.135285
 20
28.507312
 30
0.0
 11
24.135285
 21
28.507312
 31
0.0
  0
LINE
  8
OBJECT
 10
19.30716
 20
29.168433
 30
0.0
 11
19.30716
 21
29.28619
 31
0.0
  0
LINE
  8
OBJECT
 10
19.46341
 20
29.28619
 30
0.0
 11
19.46341
 21
29.168433
 31
0.0
  0
ARC
  8
OBJECT
 10
19.385285
 20
29.273097
 30
0.0
 40
0.079215
 50
9.513859
 51
170.486141
  0
ARC
  8
OBJECT
 10
19.385285
 20
29.181526
 30
0.0
 40
0.079215
 50
189.513859
 51
350.486141
  0
LINE
  8
DIM
 10
19.385285
 20
29.013368
 30
0.0
 11
19.385285
 21
29.408746
 31
0.0
  0
LINE
  8
DIM
 10
19.488118
 20
29.227312
 30
0.0
 11
19.282791
 21
29.227312
 31
0.0
  0
LINE
  8
DIM
 10
19.988118
 20
29.227312
 30
0.0
 11
19.782791
 21
29.227312
 31
0.0
  0
LINE
  8
DIM
 10
19.885285
 20
29.013368
 30
0.0
 11
19.885285
 21
29.408746
 31
0.0
  0
ARC
  8
OBJECT
 10
19.885285
 20
29.181526
 30
0.0
 40
0.079215
 50
189.513859
 51
350.486141
  0
ARC
  8
OBJECT
 10
19.885285
 20
29.273097
 30
0.0
 40
0.079215
 50
9.513859
 51
170.486141
  0
LINE
  8
OBJECT
 10
19.96341
 20
29.28619
 30
0.0
 11
19.96341
 21
29.168433
 31
0.0
  0
LINE
  8
OBJECT
 10
19.80716
 20
29.168433
 30
0.0
 11
19.80716
 21
29.28619
 31
0.0
  0
LINE
  8
DIM
 10
20.488118
 20
29.227312
 30
0.0
 11
20.282791
 21
29.227312
 31
0.0
  0
LINE
  8
DIM
 10
20.385285
 20
29.013368
 30
0.0
 11
20.385285
 21
29.408746
 31
0.0
  0
ARC
  8
OBJECT
 10
20.385285
 20
29.181526
 30
0.0
 40
0.079215
 50
189.513859
 51
350.486141
  0
ARC
  8
OBJECT
 10
20.385285
 20
29.273097
 30
0.0
 40
0.079215
 50
9.513859
 51
170.486141
  0
LINE
  8
OBJECT
 10
20.46341
 20
29.28619
 30
0.0
 11
20.46341
 21
29.168433
 31
0.0
  0
LINE
  8
OBJECT
 10
20.30716
 20
29.168433
 30
0.0
 11
20.30716
 21
29.28619
 31
0.0
  0
LINE
  8
DIM
 10
20.988118
 20
29.227312
 30
0.0
 11
20.782791
 21
29.227312
 31
0.0
  0
LINE
  8
DIM
 10
20.885285
 20
29.013368
 30
0.0
 11
20.885285
 21
29.408746
 31
0.0
  0
ARC
  8
OBJECT
 10
20.885285
 20
29.181526
 30
0.0
 40
0.079215
 50
189.513859
 51
350.486141
  0
ARC
  8
OBJECT
 10
20.885285
 20
29.273097
 30
0.0
 40
0.079215
 50
9.513859
 51
170.486141
  0
LINE
  8
OBJECT
 10
20.96341
 20
29.28619
 30
0.0
 11
20.96341
 21
29.168433
 31
0.0
  0
LINE
  8
OBJECT
 10
20.80716
 20
29.168433
 30
0.0
 11
20.80716
 21
29.28619
 31
0.0
  0
LINE
  8
DIM
 10
21.488118
 20
29.227312
 30
0.0
 11
21.282791
 21
29.227312
 31
0.0
  0
LINE
  8
DIM
 10
21.385285
 20
29.013368
 30
0.0
 11
21.385285
 21
29.408746
 31
0.0
  0
ARC
  8
OBJECT
 10
21.385285
 20
29.181526
 30
0.0
 40
0.079215
 50
189.513859
 51
350.486141
  0
ARC
  8
OBJECT
 10
21.385285
 20
29.273097
 30
0.0
 40
0.079215
 50
9.513859
 51
170.486141
  0
LINE
  8
OBJECT
 10
21.46341
 20
29.28619
 30
0.0
 11
21.46341
 21
29.168433
 31
0.0
  0
LINE
  8
OBJECT
 10
21.30716
 20
29.168433
 30
0.0
 11
21.30716
 21
29.28619
 31
0.0
  0
LINE
  8
DIM
 10
21.988118
 20
29.227312
 30
0.0
 11
21.782791
 21
29.227312
 31
0.0
  0
LINE
  8
DIM
 10
21.885285
 20
29.013368
 30
0.0
 11
21.885285
 21
29.408746
 31
0.0
  0
ARC
  8
OBJECT
 10
21.885285
 20
29.181526
 30
0.0
 40
0.079215
 50
189.513859
 51
350.486141
  0
ARC
  8
OBJECT
 10
21.885285
 20
29.273097
 30
0.0
 40
0.079215
 50
9.513859
 51
170.486141
  0
LINE
  8
OBJECT
 10
21.96341
 20
29.28619
 30
0.0
 11
21.96341
 21
29.168433
 31
0.0
  0
LINE
  8
OBJECT
 10
21.80716
 20
29.168433
 30
0.0
 11
21.80716
 21
29.28619
 31
0.0
  0
LINE
  8
DIM
 10
22.488118
 20
29.227312
 30
0.0
 11
22.282791
 21
29.227312
 31
0.0
  0
LINE
  8
DIM
 10
22.385285
 20
29.013368
 30
0.0
 11
22.385285
 21
29.408746
 31
0.0
  0
ARC
  8
OBJECT
 10
22.385285
 20
29.181526
 30
0.0
 40
0.079215
 50
189.513859
 51
350.486141
  0
ARC
  8
OBJECT
 10
22.385285
 20
29.273097
 30
0.0
 40
0.079215
 50
9.513859
 51
170.486141
  0
LINE
  8
OBJECT
 10
22.46341
 20
29.28619
 30
0.0
 11
22.46341
 21
29.168433
 31
0.0
  0
LINE
  8
OBJECT
 10
22.30716
 20
29.168433
 30
0.0
 11
22.30716
 21
29.28619
 31
0.0
  0
LINE
  8
DIM
 10
22.988118
 20
29.227312
 30
0.0
 11
22.782791
 21
29.227312
 31
0.0
  0
LINE
  8
DIM
 10
22.885285
 20
29.013368
 30
0.0
 11
22.885285
 21
29.408746
 31
0.0
  0
ARC
  8
OBJECT
 10
22.885285
 20
29.181526
 30
0.0
 40
0.079215
 50
189.513859
 51
350.486141
  0
ARC
  8
OBJECT
 10
22.885285
 20
29.273097
 30
0.0
 40
0.079215
 50
9.513859
 51
170.486141
  0
LINE
  8
OBJECT
 10
22.96341
 20
29.28619
 30
0.0
 11
22.96341
 21
29.168433
 31
0.0
  0
LINE
  8
OBJECT
 10
22.80716
 20
29.168433
 30
0.0
 11
22.80716
 21
29.28619
 31
0.0
  0
LINE
  8
DIM
 10
23.488118
 20
29.227312
 30
0.0
 11
23.282791
 21
29.227312
 31
0.0
  0
LINE
  8
DIM
 10
23.385285
 20
29.013368
 30
0.0
 11
23.385285
 21
29.408746
 31
0.0
  0
ARC
  8
OBJECT
 10
23.385285
 20
29.181526
 30
0.0
 40
0.079215
 50
189.513859
 51
350.486141
  0
ARC
  8
OBJECT
 10
23.385285
 20
29.273097
 30
0.0
 40
0.079215
 50
9.513859
 51
170.486141
  0
LINE
  8
OBJECT
 10
23.46341
 20
29.28619
 30
0.0
 11
23.46341
 21
29.168433
 31
0.0
  0
LINE
  8
OBJECT
 10
23.30716
 20
29.168433
 30
0.0
 11
23.30716
 21
29.28619
 31
0.0
  0
LINE
  8
DIM
 10
18.988118
 20
29.227312
 30
0.0
 11
18.782791
 21
29.227312
 31
0.0
  0
LINE
  8
DIM
 10
18.885285
 20
29.013368
 30
0.0
 11
18.885285
 21
29.408746
 31
0.0
  0
ARC
  8
OBJECT
 10
18.885285
 20
29.181526
 30
0.0
 40
0.079215
 50
189.513859
 51
350.486141
  0
ARC
  8
OBJECT
 10
18.885285
 20
29.273097
 30
0.0
 40
0.079215
 50
9.513859
 51
170.486141
  0
LINE
  8
OBJECT
 10
18.96341
 20
29.28619
 30
0.0
 11
18.96341
 21
29.168433
 31
0.0
  0
LINE
  8
OBJECT
 10
18.80716
 20
29.168433
 30
0.0
 11
18.80716
 21
29.28619
 31
0.0
  0
CIRCLE
  8
OBJECT
 10
20.635285
 20
28.736837
 30
0.0
 40
0.0545
  0
CIRCLE
  8
OBJECT
 10
21.635285
 20
28.736837
 30
0.0
 40
0.0545
  0
CIRCLE
  8
OBJECT
 10
21.635285
 20
35.518412
 30
0.0
 40
0.101
  0
CIRCLE
  8
OBJECT
 10
20.635285
 20
35.518412
 30
0.0
 40
0.101
  0
LINE
  8
TITLE
 10
0.235287
 20
0.235287
 30
0.0
 11
0.235287
 21
38.999713
 31
0.0
  0
LINE
  8
TITLE
 10
25.534928
 20
0.235287
 30
0.0
 11
0.235287
 21
0.235287
 31
0.0
  0
LINE
  8
TITLE
 10
25.534928
 20
38.999713
 30
0.0
 11
25.534928
 21
0.235287
 31
0.0
  0
LINE
  8
TITLE
 10
0.235287
 20
38.999713
 30
0.0
 11
25.534928
 21
38.999713
 31
0.0
  0
LINE
  8
TITLE
 10
0.235287
 20
37.734731
 30
0.0
 11
25.534928
 21
37.734731
 31
0.0
  0
LINE
  8
TITLE
 10
2.13276
 20
38.999713
 30
0.0
 11
2.13276
 21
37.734731
 31
0.0
  0
LINE
  8
TITLE
 10
13.201353
 20
37.734731
 30
0.0
 11
13.201353
 21
38.999713
 31
0.0
  0
LINE
  8
TITLE
 10
15.098826
 20
38.999713
 30
0.0
 11
15.098826
 21
37.734731
 31
0.0
  0
TEXT
  8
TEXT
 10
0.603324
 20
38.426613
 30
0.0
 40
0.316246
  1
PART
  0
TEXT
  8
TEXT
 10
0.603324
 20
37.899537
 30
0.0
 40
0.316246
  1
NAME
  0
TEXT
  8
TEXT
 10
13.633676
 20
38.463948
 30
0.0
 40
0.316246
  1
PART
  0
TEXT
  8
TEXT
 10
13.633676
 20
37.936872
 30
0.0
 40
0.316246
  1
No.
  0
TEXT
  8
TEXT
 10
4.849241
 20
38.165265
 30
0.0
 40
0.474188
  1
CHAMPION SERIES
 41
0.75
  0
TEXT
  8
TEXT
 10
16.913909
 20
38.157881
 30
0.0
 40
0.474188
  1
CS-11202  TO  CS-11216
 41
0.75
  0
LINE
  8
TITLE
 10
0.0
 20
0.235287
 30
0.0
 11
0.0
 21
39.235
 31
0.0
  0
LINE
  8
TITLE
 10
0.0
 20
39.235
 30
0.0
 11
25.770215
 21
39.235
 31
0.0
  0
LINE
  8
TITLE
 10
0.0
 20
38.999713
 30
0.0
 11
0.0
 21
39.235
 31
0.0
  0
LINE
  8
TITLE
 10
25.770215
 20
38.999713
 30
0.0
 11
25.770215
 21
39.235
 31
0.0
  0
LINE
  8
TITLE
 10
25.770215
 20
39.235
 30
0.0
 11
25.770215
 21
0.235287
 31
0.0
  0
LINE
  8
TITLE
 10
25.534928
 20
0.0
 30
0.0
 11
0.235287
 21
0.0
 31
0.0
  0
LINE
  8
TITLE
 10
25.534928
 20
0.0
 30
0.0
 11
25.770215
 21
0.0
 31
0.0
  0
LINE
  8
TITLE
 10
25.770215
 20
0.235287
 30
0.0
 11
25.770215
 21
0.0
 31
0.0
  0
LINE
  8
TITLE
 10
0.235287
 20
0.0
 30
0.0
 11
0.0
 21
0.0
 31
0.0
  0
LINE
  8
TITLE
 10
0.0
 20
0.235287
 30
0.0
 11
0.0
 21
0.0
 31
0.0
  0
LINE
  8
TITLE
 10
12.966066
 20
37.734731
 30
0.0
 11
12.966066
 21
38.999713
 31
0.0
  0
ARC
  8
OBJECT
 10
7.747887
 20
35.958022
 30
0.0
 40
0.852268
 50
345.729456
 51
11.478589
  0
ARC
  8
OBJECT
 10
7.747887
 20
35.958022
 30
0.0
 40
0.852268
 50
334.844332
 51
345.729456
  0
ARC
  8
OBJECT
 10
3.469123
 20
29.89547
 30
0.0
 40
4.94304
 50
344.293151
 51
13.560606
  0
LINE
  8
OBJECT
 10
8.213242
 20
28.507312
 30
0.0
 11
2.432005
 21
28.507312
 31
0.0
  0
LINE
  8
OBJECT
 10
8.227587
 20
28.557312
 30
0.0
 11
2.482005
 21
28.557312
 31
0.0
  0
LINE
  8
OBJECT
 10
8.573856
 20
35.747937
 30
0.0
 11
2.432005
 21
35.747937
 31
0.0
  0
LINE
  8
OBJECT
 10
8.5595
 20
35.697937
 30
0.0
 11
2.482005
 21
35.697937
 31
0.0
  0
LINE
  8
DIM
 10
14.382005
 20
21.912463
 30
0.0
 11
14.382005
 21
22.595427
 31
0.0
  0
LINE
  8
DIM
 10
2.382005
 20
21.912463
 30
0.0
 11
2.382005
 21
22.595427
 31
0.0
  0
LINE
  8
DIM
 10
13.932005
 20
22.362927
 30
0.0
 11
8.782499
 21
22.362927
 31
0.0
  0
LINE
  8
DIM
 10
2.832005
 20
22.362927
 30
0.0
 11
8.047371
 21
22.362927
 31
0.0
  0
SOLID
  8
DIM
 10
13.932005
 20
22.287927
 30
0.0
 11
13.932005
 21
22.437927
 31
0.0
 12
14.382005
 22
22.362927
 32
0.0
 13
14.382005
 23
22.362927
 33
0.0
  0
SOLID
  8
DIM
 10
2.832005
 20
22.287927
 30
0.0
 11
2.832005
 21
22.437927
 31
0.0
 12
2.382005
 22
22.362927
 32
0.0
 13
2.382005
 23
22.362927
 33
0.0
  0
TEXT
  8
DIM
 10
8.277838
 20
22.206677
 30
0.0
 40
0.3125
  1
B
 41
0.75
  0
LINE
  8
DIM
 10
17.979035
 20
28.127624
 30
0.0
 11
17.317146
 21
28.127624
 31
0.0
  0
LINE
  8
DIM
 10
17.979035
 20
36.127624
 30
0.0
 11
15.932323
 21
36.127624
 31
0.0
  0
LINE
  8
DIM
 10
16.164823
 20
28.577624
 30
0.0
 11
16.164823
 21
31.803972
 31
0.0
  0
LINE
  8
DIM
 10
16.164823
 20
35.677624
 30
0.0
 11
16.164823
 21
32.451277
 31
0.0
  0
SOLID
  8
DIM
 10
16.239823
 20
28.577624
 30
0.0
 11
16.089823
 21
28.577624
 31
0.0
 12
16.164823
 22
28.127624
 32
0.0
 13
16.164823
 23
28.127624
 33
0.0
  0
SOLID
  8
DIM
 10
16.239823
 20
35.677624
 30
0.0
 11
16.089823
 21
35.677624
 31
0.0
 12
16.164823
 22
36.127624
 32
0.0
 13
16.164823
 23
36.127624
 33
0.0
  0
TEXT
  8
DIM
 10
16.060656
 20
31.971374
 30
0.0
 40
0.3125
  1
C
 41
0.75
  0
LINE
  8
DIM
 10
18.135285
 20
27.971374
 30
0.0
 11
18.135285
 21
26.677629
 31
0.0
  0
LINE
  8
DIM
 10
24.135285
 20
27.971374
 30
0.0
 11
24.135285
 21
26.677629
 31
0.0
  0
LINE
  8
DIM
 10
18.585285
 20
26.910129
 30
0.0
 11
20.785287
 21
26.910129
 31
0.0
  0
LINE
  8
DIM
 10
23.685285
 20
26.910129
 30
0.0
 11
21.35964
 21
26.910129
 31
0.0
  0
SOLID
  8
DIM
 10
18.585285
 20
26.835129
 30
0.0
 11
18.585285
 21
26.985129
 31
0.0
 12
18.135285
 22
26.910129
 32
0.0
 13
18.135285
 23
26.910129
 33
0.0
  0
SOLID
  8
DIM
 10
23.685285
 20
26.835129
 30
0.0
 11
23.685285
 21
26.985129
 31
0.0
 12
24.135285
 22
26.910129
 32
0.0
 13
24.135285
 23
26.910129
 33
0.0
  0
TEXT
  8
DIM
 10
21.031118
 20
26.753879
 30
0.0
 40
0.3125
  1
A
 41
0.75
  0
LINE
  8
DIM
 10
3.648517
 20
35.247937
 30
0.0
 11
3.648517
 21
32.473449
 31
0.0
  0
LINE
  8
DIM
 10
3.648517
 20
29.007312
 30
0.0
 11
3.648517
 21
31.7818
 31
0.0
  0
SOLID
  8
DIM
 10
3.723517
 20
35.247937
 30
0.0
 11
3.573517
 21
35.247937
 31
0.0
 12
3.648517
 22
35.697937
 32
0.0
 13
3.648517
 23
35.697937
 33
0.0
  0
SOLID
  8
DIM
 10
3.723517
 20
29.007312
 30
0.0
 11
3.573517
 21
29.007312
 31
0.0
 12
3.648517
 22
28.557312
 32
0.0
 13
3.648517
 23
28.557312
 33
0.0
  0
TEXT
  8
DIM
 10
3.596454
 20
31.971374
 30
0.0
 40
0.3125
  1
F
 41
0.75
  0
LINE
  8
DIM
 10
3.237871
 20
21.256213
 30
0.0
 11
3.237871
 21
19.174952
 31
0.0
  0
LINE
  8
DIM
 10
3.237871
 20
16.276213
 30
0.0
 11
3.237871
 21
18.401365
 31
0.0
  0
SOLID
  8
DIM
 10
3.312871
 20
21.256213
 30
0.0
 11
3.162871
 21
21.256213
 31
0.0
 12
3.237871
 22
21.706213
 32
0.0
 13
3.237871
 23
21.706213
 33
0.0
  0
SOLID
  8
DIM
 10
3.312871
 20
16.276213
 30
0.0
 11
3.162871
 21
16.276213
 31
0.0
 12
3.237871
 22
15.826213
 32
0.0
 13
3.237871
 23
15.826213
 33
0.0
  0
TEXT
  8
DIM
 10
3.155657
 20
18.609963
 30
0.0
 40
0.3125
  1
D
 41
0.75
  0
LINE
  8
DIM
 10
14.08513
 20
29.653562
 30
0.0
 11
14.08513
 21
30.713212
 31
0.0
  0
LINE
  8
DIM
 10
2.67888
 20
29.653562
 30
0.0
 11
2.67888
 21
30.713212
 31
0.0
  0
LINE
  8
DIM
 10
13.63513
 20
30.480712
 30
0.0
 11
7.842005
 21
30.480712
 31
0.0
  0
LINE
  8
DIM
 10
3.12888
 20
30.480712
 30
0.0
 11
3.440633
 21
30.480712
 31
0.0
  0
SOLID
  8
DIM
 10
13.63513
 20
30.405712
 30
0.0
 11
13.63513
 21
30.555712
 31
0.0
 12
14.08513
 22
30.480712
 32
0.0
 13
14.08513
 23
30.480712
 33
0.0
  0
SOLID
  8
DIM
 10
3.12888
 20
30.405712
 30
0.0
 11
3.12888
 21
30.555712
 31
0.0
 12
2.67888
 22
30.480712
 32
0.0
 13
2.67888
 23
30.480712
 33
0.0
  0
TEXT
  8
DIM
 10
7.504658
 20
30.324462
 30
0.0
 40
0.3125
  1
E
 41
0.75
  0
LINE
  8
DIM
 10
3.888171
 20
30.480712
 30
0.0
 11
7.295487
 21
30.480712
 31
0.0
  0
SOLID
  8
DIM
 10
14.574385
 20
15.420978
 30
0.0
 11
14.683007
 21
15.524426
 31
0.0
 12
14.318355
 22
15.798567
 32
0.0
 13
14.318355
 23
15.798567
 33
0.0
  0
LINE
  8
DIM
 10
14.628696
 20
15.472702
 30
0.0
 11
15.197362
 21
14.875589
 31
0.0
  0
LINE
  8
DIM
 10
15.197362
 20
14.875589
 30
0.0
 11
15.647362
 21
14.875589
 31
0.0
  0
TEXT
  8
DIM
 10
15.87783
 20
14.719339
 30
0.0
 40
0.3125
  1
0.312 R. (INSIDE)
 41
0.75
  0
TEXT
  8
TEXT
 10
17.190241
 20
22.061957
 30
0.0
 40
0.313
  1
MATERIAL: 0.050 THK. ALUMINUM
 41
0.75
  0
TEXT
  8
TEXT
 10
17.190241
 20
21.544404
 30
0.0
 40
0.313
  1
QTY. (4) #F-3581 RUBBER FEET
 41
0.75
  0
TEXT
  8
TEXT
 10
17.190241
 20
21.022737
 30
0.0
 40
0.313
  1
QTY. (8) #6 x 1/4 TRUSS HEAD
 41
0.75
  0
TEXT
  8
TEXT
 10
17.190241
 20
20.501071
 30
0.0
 40
0.313
  1
 TAPPING SCREW.
 41
0.75
  0
TEXT
  8
TEXT
 10
7.263177
 20
14.316156
 30
0.0
 40
0.313251
  1
%%uFRONT VIEW
 41
0.75
  0
TEXT
  8
TEXT
 10
7.263177
 20
26.648174
 30
0.0
 40
0.313251
  1
%%uTOP VIEW
 41
0.75
  0
TEXT
  8
TEXT
 10
19.803091
 20
25.655545
 30
0.0
 40
0.313251
  1
%%uSIDE VIEW
 41
0.75
  0
LINE
  8
TITLE
 10
3.784928
 20
0.235287
 30
0.0
 11
3.784928
 21
11.063885
 31
0.0
  0
LINE
  8
TITLE
 10
7.409928
 20
0.235287
 30
0.0
 11
7.409928
 21
11.063885
 31
0.0
  0
LINE
  8
TITLE
 10
14.659928
 20
0.235287
 30
0.0
 11
14.659928
 21
11.063885
 31
0.0
  0
LINE
  8
TITLE
 10
11.034928
 20
0.235287
 30
0.0
 11
11.034928
 21
11.063885
 31
0.0
  0
LINE
  8
TITLE
 10
18.284928
 20
0.235287
 30
0.0
 11
18.284928
 21
11.063885
 31
0.0
  0
LINE
  8
TITLE
 10
21.909928
 20
0.235287
 30
0.0
 11
21.909928
 21
11.063885
 31
0.0
  0
LINE
  8
TITLE
 10
25.534928
 20
11.063885
 30
0.0
 11
0.235287
 21
11.063885
 31
0.0
  0
LINE
  8
TITLE
 10
25.534928
 20
8.235287
 30
0.0
 11
0.235287
 21
8.235287
 31
0.0
  0
LINE
  8
TITLE
 10
25.534928
 20
7.235287
 30
0.0
 11
0.235287
 21
7.235287
 31
0.0
  0
LINE
  8
TITLE
 10
25.534928
 20
6.235287
 30
0.0
 11
0.235287
 21
6.235287
 31
0.0
  0
LINE
  8
TITLE
 10
25.534928
 20
5.235287
 30
0.0
 11
0.235287
 21
5.235287
 31
0.0
  0
LINE
  8
TITLE
 10
25.534928
 20
4.235287
 30
0.0
 11
0.235287
 21
4.235287
 31
0.0
  0
LINE
  8
TITLE
 10
25.534928
 20
3.235287
 30
0.0
 11
0.235287
 21
3.235287
 31
0.0
  0
LINE
  8
TITLE
 10
25.534928
 20
2.235287
 30
0.0
 11
0.235287
 21
2.235287
 31
0.0
  0
LINE
  8
TITLE
 10
25.534928
 20
1.235287
 30
0.0
 11
0.235287
 21
1.235287
 31
0.0
  0
TEXT
  8
TEXT
 10
15.219149
 20
10.498512
 30
0.0
 40
0.3
  1
%%uCLEAR INSIDE
 41
0.75
  0
TEXT
  8
TEXT
 10
12.155754
 20
10.190164
 30
0.0
 40
0.4
  1
%%uDEPTH
 41
0.75
  0
TEXT
  8
TEXT
 10
8.530754
 20
10.190164
 30
0.0
 40
0.4
  1
%%uWIDTH
 41
0.75
  0
TEXT
  8
TEXT
 10
4.851186
 20
10.190164
 30
0.0
 40
0.4
  1
%%uHEIGHT
 41
0.75
  0
TEXT
  8
TEXT
 10
5.45472
 20
8.636541
 30
0.0
 40
0.5
  1
%%uA
 41
0.75
  0
TEXT
  8
TEXT
 10
9.052436
 20
8.636541
 30
0.0
 40
0.5
  1
%%uB
 41
0.75
  0
TEXT
  8
TEXT
 10
12.70472
 20
8.636541
 30
0.0
 40
0.5
  1
%%uC
 41
0.75
  0
TEXT
  8
TEXT
 10
16.220584
 20
8.581992
 30
0.0
 40
0.5
  1
%%uD
 41
0.75
  0
TEXT
  8
TEXT
 10
19.845584
 20
8.636541
 30
0.0
 40
0.5
  1
%%uE
 41
0.75
  0
TEXT
  8
TEXT
 10
23.552436
 20
8.636541
 30
0.0
 40
0.5
  1
%%uF
 41
0.75
  0
TEXT
  8
TEXT
 10
4.861937
 20
7.445431
 30
0.0
 40
0.5
  1
4.000
 41
0.75
  0
TEXT
  8
TEXT
 10
8.514221
 20
7.445431
 30
0.0
 40
0.5
  1
6.000
 41
0.75
  0
TEXT
  8
TEXT
 10
12.193789
 20
7.445431
 30
0.0
 40
0.5
  1
6.000
 41
0.75
  0
TEXT
  8
TEXT
 10
15.682369
 20
7.445431
 30
0.0
 40
0.5
  1
3.875
 41
0.75
  0
TEXT
  8
TEXT
 10
19.225518
 20
7.445431
 30
0.0
 40
0.5
  1
5.375
 41
0.75
  0
TEXT
  8
TEXT
 10
23.068789
 20
7.445431
 30
0.0
 40
0.5
  1
5.141
 41
0.75
  0
TEXT
  8
TEXT
 10
0.82216
 20
7.445431
 30
0.0
 40
0.45
  1
CS-11202
 41
0.75
  0
TEXT
  8
TEXT
 10
0.82216
 20
6.445431
 30
0.0
 40
0.45
  1
CS-11204
 41
0.75
  0
TEXT
  8
TEXT
 10
4.861937
 20
6.445431
 30
0.0
 40
0.5
  1
4.000
 41
0.75
  0
TEXT
  8
TEXT
 10
8.514221
 20
6.445431
 30
0.0
 40
0.5
  1
9.000
 41
0.75
  0
TEXT
  8
TEXT
 10
12.193789
 20
6.445431
 30
0.0
 40
0.5
  1
8.000
 41
0.75
  0
TEXT
  8
TEXT
 10
15.682369
 20
6.445431
 30
0.0
 40
0.5
  1
3.875
 41
0.75
  0
TEXT
  8
TEXT
 10
19.252801
 20
6.445431
 30
0.0
 40
0.5
  1
8.375
 41
0.75
  0
TEXT
  8
TEXT
 10
23.068789
 20
6.445431
 30
0.0
 40
0.5
  1
7.141
 41
0.75
  0
TEXT
  8
TEXT
 10
0.82216
 20
5.445431
 30
0.0
 40
0.45
  1
CS-11206
 41
0.75
  0
TEXT
  8
TEXT
 10
4.861937
 20
5.445431
 30
0.0
 40
0.5
  1
4.000
 41
0.75
  0
TEXT
  8
TEXT
 10
8.387239
 20
5.445431
 30
0.0
 40
0.5
  1
12.000
 41
0.75
  0
TEXT
  8
TEXT
 10
12.193789
 20
5.445431
 30
0.0
 40
0.5
  1
8.000
 41
0.75
  0
TEXT
  8
TEXT
 10
15.682369
 20
5.445431
 30
0.0
 40
0.5
  1
3.875
 41
0.75
  0
TEXT
  8
TEXT
 10
19.228006
 20
5.445431
 30
0.0
 40
0.5
  1
11.375
 41
0.75
  0
TEXT
  8
TEXT
 10
23.068789
 20
5.445431
 30
0.0
 40
0.5
  1
7.141
 41
0.75
  0
TEXT
  8
TEXT
 10
0.82216
 20
4.445431
 30
0.0
 40
0.45
  1
CS-11208
 41
0.75
  0
TEXT
  8
TEXT
 10
4.861937
 20
4.445431
 30
0.0
 40
0.5
  1
6.000
 41
0.75
  0
TEXT
  8
TEXT
 10
8.514221
 20
4.445431
 30
0.0
 40
0.5
  1
9.000
 41
0.75
  0
TEXT
  8
TEXT
 10
12.193789
 20
4.445431
 30
0.0
 40
0.5
  1
8.000
 41
0.75
  0
TEXT
  8
TEXT
 10
15.682369
 20
4.445431
 30
0.0
 40
0.5
  1
5.875
 41
0.75
  0
TEXT
  8
TEXT
 10
19.252801
 20
4.445431
 30
0.0
 40
0.5
  1
8.375
 41
0.75
  0
TEXT
  8
TEXT
 10
23.068789
 20
4.445431
 30
0.0
 40
0.5
  1
7.141
 41
0.75
  0
TEXT
  8
TEXT
 10
0.82216
 20
3.445431
 30
0.0
 40
0.45
  1
CS-11210
 41
0.75
  0
TEXT
  8
TEXT
 10
4.861937
 20
3.445431
 30
0.0
 40
0.5
  1
6.000
 41
0.75
  0
TEXT
  8
TEXT
 10
8.387239
 20
3.445431
 30
0.0
 40
0.5
  1
12.000
 41
0.75
  0
TEXT
  8
TEXT
 10
12.193789
 20
3.445431
 30
0.0
 40
0.5
  1
8.000
 41
0.75
  0
TEXT
  8
TEXT
 10
15.682369
 20
3.445431
 30
0.0
 40
0.5
  1
5.875
 41
0.75
  0
TEXT
  8
TEXT
 10
19.228006
 20
3.445431
 30
0.0
 40
0.5
  1
11.375
 41
0.75
  0
TEXT
  8
TEXT
 10
23.068789
 20
3.445431
 30
0.0
 40
0.5
  1
7.141
 41
0.75
  0
TEXT
  8
TEXT
 10
0.82216
 20
2.445431
 30
0.0
 40
0.45
  1
CS-11212
 41
0.75
  0
TEXT
  8
TEXT
 10
4.861937
 20
2.445431
 30
0.0
 40
0.5
  1
6.000
 41
0.75
  0
TEXT
  8
TEXT
 10
8.387239
 20
2.445431
 30
0.0
 40
0.5
  1
12.000
 41
0.75
  0
TEXT
  8
TEXT
 10
12.071269
 20
2.445431
 30
0.0
 40
0.5
  1
10.000
 41
0.75
  0
TEXT
  8
TEXT
 10
15.682369
 20
2.445431
 30
0.0
 40
0.5
  1
5.875
 41
0.75
  0
TEXT
  8
TEXT
 10
19.228006
 20
2.445431
 30
0.0
 40
0.5
  1
11.375
 41
0.75
  0
TEXT
  8
TEXT
 10
23.068789
 20
2.445431
 30
0.0
 40
0.5
  1
9.141
 41
0.75
  0
TEXT
  8
TEXT
 10
0.82216
 20
1.445431
 30
0.0
 40
0.45
  1
CS-11214
 41
0.75
  0
TEXT
  8
TEXT
 10
4.861937
 20
1.445431
 30
0.0
 40
0.5
  1
8.000
 41
0.75
  0
TEXT
  8
TEXT
 10
8.514221
 20
1.445431
 30
0.0
 40
0.5
  1
9.000
 41
0.75
  0
TEXT
  8
TEXT
 10
12.193789
 20
1.445431
 30
0.0
 40
0.5
  1
8.000
 41
0.75
  0
TEXT
  8
TEXT
 10
15.682369
 20
1.445431
 30
0.0
 40
0.5
  1
7.875
 41
0.75
  0
TEXT
  8
TEXT
 10
19.252801
 20
1.445431
 30
0.0
 40
0.5
  1
8.375
 41
0.75
  0
TEXT
  8
TEXT
 10
23.068789
 20
1.445431
 30
0.0
 40
0.5
  1
7.141
 41
0.75
  0
TEXT
  8
TEXT
 10
0.82216
 20
0.445431
 30
0.0
 40
0.45
  1
CS-11216
 41
0.75
  0
TEXT
  8
TEXT
 10
4.861937
 20
0.445431
 30
0.0
 40
0.5
  1
8.000
 41
0.75
  0
TEXT
  8
TEXT
 10
8.387239
 20
0.445431
 30
0.0
 40
0.5
  1
12.000
 41
0.75
  0
TEXT
  8
TEXT
 10
12.071269
 20
0.445431
 30
0.0
 40
0.5
  1
10.000
 41
0.75
  0
TEXT
  8
TEXT
 10
15.682369
 20
0.445431
 30
0.0
 40
0.5
  1
7.875
 41
0.75
  0
TEXT
  8
TEXT
 10
19.228006
 20
0.445431
 30
0.0
 40
0.5
  1
11.375
 41
0.75
  0
TEXT
  8
TEXT
 10
23.068789
 20
0.445431
 30
0.0
 40
0.5
  1
9.141
 41
0.75
  0
TEXT
  8
TEXT
 10
1.255135
 20
10.086589
 30
0.0
 40
0.5
  1
%%uPART
 41
0.75
  0
TEXT
  8
TEXT
 10
1.538871
 20
9.206203
 30
0.0
 40
0.5
  1
%%uNo.
 41
0.75
  0
LINE
  8
DIM
 10
17.979035
 20
28.557312
 30
0.0
 11
16.93721
 21
28.557312
 31
0.0
  0
LINE
  8
DIM
 10
18.626541
 20
29.227312
 30
0.0
 11
16.93721
 21
29.227312
 31
0.0
  0
LINE
  8
DIM
 10
17.127178
 20
29.677312
 30
0.0
 11
17.127178
 21
29.963138
 31
0.0
  0
LINE
  8
DIM
 10
17.127178
 20
28.107312
 30
0.0
 11
17.127178
 21
27.657312
 31
0.0
  0
SOLID
  8
DIM
 10
17.202178
 20
29.677312
 30
0.0
 11
17.052178
 21
29.677312
 31
0.0
 12
17.127178
 22
29.227312
 32
0.0
 13
17.127178
 23
29.227312
 33
0.0
  0
SOLID
  8
DIM
 10
17.202178
 20
28.107312
 30
0.0
 11
17.052178
 21
28.107312
 31
0.0
 12
17.127178
 22
28.557312
 32
0.0
 13
17.127178
 23
28.557312
 33
0.0
  0
TEXT
  8
DIM
 10
16.670074
 20
28.756644
 30
0.0
 40
0.3125
  1
0.715
 41
0.75
  0
LINE
  8
DIM
 10
16.966436
 20
28.127624
 30
0.0
 11
15.932323
 21
28.127624
 31
0.0
  0
LINE
  8
DIM
 10
19.335285
 20
30.138474
 30
0.0
 11
19.785285
 21
30.138474
 31
0.0
  0
LINE
  8
DIM
 10
17.685285
 20
30.138474
 30
0.0
 11
17.235285
 21
30.138474
 31
0.0
  0
SOLID
  8
DIM
 10
19.335285
 20
30.063474
 30
0.0
 11
19.335285
 21
30.213474
 31
0.0
 12
18.885285
 22
30.138474
 32
0.0
 13
18.885285
 23
30.138474
 33
0.0
  0
SOLID
  8
DIM
 10
17.685285
 20
30.063474
 30
0.0
 11
17.685285
 21
30.213474
 31
0.0
 12
18.135285
 22
30.138474
 32
0.0
 13
18.135285
 23
30.138474
 33
0.0
  0
TEXT
  8
DIM
 10
19.95764
 20
29.982224
 30
0.0
 40
0.3125
  1
0.750
 41
0.75
  0
LINE
  8
DIM
 10
18.885285
 20
29.564996
 30
0.0
 11
18.885285
 21
31.057649
 31
0.0
  0
LINE
  8
DIM
 10
19.385285
 20
29.564996
 30
0.0
 11
19.385285
 21
29.910537
 31
0.0
  0
LINE
  8
DIM
 10
19.835285
 20
30.825149
 30
0.0
 11
20.285285
 21
30.825149
 31
0.0
  0
LINE
  8
DIM
 10
18.435285
 20
30.825149
 30
0.0
 11
17.985285
 21
30.825149
 31
0.0
  0
SOLID
  8
DIM
 10
19.835285
 20
30.750149
 30
0.0
 11
19.835285
 21
30.900149
 31
0.0
 12
19.385285
 22
30.825149
 32
0.0
 13
19.385285
 23
30.825149
 33
0.0
  0
SOLID
  8
DIM
 10
18.435285
 20
30.750149
 30
0.0
 11
18.435285
 21
30.900149
 31
0.0
 12
18.885285
 22
30.825149
 32
0.0
 13
18.885285
 23
30.825149
 33
0.0
  0
TEXT
  8
DIM
 10
20.468295
 20
30.668899
 30
0.0
 40
0.3125
  1
0.500
 41
0.75
  0
LINE
  8
DIM
 10
19.385285
 20
30.49201
 30
0.0
 11
19.385285
 21
31.057649
 31
0.0
  0
TEXT
  8
TEXT
 10
17.190241
 20
20.055302
 30
0.0
 40
0.313
  1
FINISH: TWO COLOR COMBINATIONS
 41
0.75
  0
TEXT
  8
TEXT
 10
17.610895
 20
19.533635
 30
0.0
 40
0.313
  1
SAND TEXTURED OR BLACK
 41
0.75
  0
TEXT
  8
TEXT
 10
17.610895
 20
19.091979
 30
0.0
 40
0.313
  1
TEXTURED TOP & BOTTOM, BOTH
 41
0.75
  0
TEXT
  8
TEXT
 10
17.610895
 20
18.671355
 30
0.0
 40
0.313
  1
WITH SMOOTH WHITE FRONT &
 41
0.75
  0
TEXT
  8
TEXT
 10
17.610895
 20
18.187637
 30
0.0
 40
0.313
  1
REAR PANELS.
 41
0.75
  0
LINE
  8
DIM
 10
2.225755
 20
21.756213
 30
0.0
 11
1.178634
 21
21.756213
 31
0.0
  0
LINE
  8
DIM
 10
3.686454
 20
20.901213
 30
0.0
 11
3.535503
 21
20.901213
 31
0.0
  0
LINE
  8
DIM
 10
1.304003
 20
20.451213
 30
0.0
 11
1.304003
 21
20.001213
 31
0.0
  0
LINE
  8
DIM
 10
1.304003
 20
22.206213
 30
0.0
 11
1.304003
 21
22.656213
 31
0.0
  0
SOLID
  8
DIM
 10
1.379003
 20
20.451213
 30
0.0
 11
1.229003
 21
20.451213
 31
0.0
 12
1.304003
 22
20.901213
 32
0.0
 13
1.304003
 23
20.901213
 33
0.0
  0
SOLID
  8
DIM
 10
1.379003
 20
22.206213
 30
0.0
 11
1.229003
 21
22.206213
 31
0.0
 12
1.304003
 22
21.756213
 32
0.0
 13
1.304003
 23
21.756213
 33
0.0
  0
TEXT
  8
DIM
 10
0.857105
 20
21.167269
 30
0.0
 40
0.3125
  1
0.860
 41
0.75
  0
LINE
  8
DIM
 10
3.500434
 20
34.74074
 30
0.0
 11
1.071503
 21
34.74074
 31
0.0
  0
LINE
  8
DIM
 10
2.225755
 20
36.127624
 30
0.0
 11
1.071503
 21
36.127624
 31
0.0
  0
LINE
  8
DIM
 10
1.304003
 20
36.577624
 30
0.0
 11
1.304003
 21
37.027624
 31
0.0
  0
LINE
  8
DIM
 10
1.304003
 20
34.29074
 30
0.0
 11
1.304003
 21
33.84074
 31
0.0
  0
SOLID
  8
DIM
 10
1.379003
 20
36.577624
 30
0.0
 11
1.229003
 21
36.577624
 31
0.0
 12
1.304003
 22
36.127624
 32
0.0
 13
1.304003
 23
36.127624
 33
0.0
  0
SOLID
  8
DIM
 10
1.379003
 20
34.29074
 30
0.0
 11
1.229003
 21
34.29074
 31
0.0
 12
1.304003
 22
34.74074
 32
0.0
 13
1.304003
 23
34.74074
 33
0.0
  0
TEXT
  8
DIM
 10
0.925132
 20
35.264326
 30
0.0
 40
0.3125
  1
1.375
 41
0.75
  0
TEXT
  8
TEXT
 10
18.625878
 20
10.498512
 30
0.0
 40
0.3
  1
%%uCLEAR INSIDE
 41
0.75
  0
TEXT
  8
TEXT
 10
22.33273
 20
10.498512
 30
0.0
 40
0.3
  1
%%uCLEAR INSIDE
 41
0.75
  0
TEXT
  8
TEXT
 10
19.150688
 20
9.638947
 30
0.0
 40
0.4
  1
%%uWIDTH
 41
0.75
  0
TEXT
  8
TEXT
 10
22.966675
 20
9.638947
 30
0.0
 40
0.4
  1
%%uDEPTH
 41
0.75
  0
TEXT
  8
TEXT
 10
15.689391
 20
9.638947
 30
0.0
 40
0.4
  1
%%uHEIGHT
 41
0.75
  0
LINE
  8
DIM
 10
4.511005
 20
20.306233
 30
0.0
 11
4.511005
 21
19.638429
 31
0.0
  0
LINE
  8
DIM
 10
4.761005
 20
20.306233
 30
0.0
 11
4.761005
 21
19.638429
 31
0.0
  0
LINE
  8
DIM
 10
5.211005
 20
19.870929
 30
0.0
 11
5.361948
 21
19.870929
 31
0.0
  0
LINE
  8
DIM
 10
4.061005
 20
19.870929
 30
0.0
 11
3.696988
 21
19.870929
 31
0.0
  0
SOLID
  8
DIM
 10
5.211005
 20
19.795929
 30
0.0
 11
5.211005
 21
19.945929
 31
0.0
 12
4.761005
 22
19.870929
 32
0.0
 13
4.761005
 23
19.870929
 33
0.0
  0
SOLID
  8
DIM
 10
4.061005
 20
19.795929
 30
0.0
 11
4.061005
 21
19.945929
 31
0.0
 12
4.511005
 22
19.870929
 32
0.0
 13
4.511005
 23
19.870929
 33
0.0
  0
TEXT
  8
DIM
 10
5.530111
 20
19.714679
 30
0.0
 40
0.3125
  1
0.250 TYP.
 41
0.75
  0
TEXT
  8
DIM
 10
5.530111
 20
33.554206
 30
0.0
 40
0.3125
  1
0.250 TYP.
 41
0.75
  0
SOLID
  8
DIM
 10
4.061005
 20
33.635456
 30
0.0
 11
4.061005
 21
33.785456
 31
0.0
 12
4.511005
 22
33.710456
 32
0.0
 13
4.511005
 23
33.710456
 33
0.0
  0
SOLID
  8
DIM
 10
5.211005
 20
33.635456
 30
0.0
 11
5.211005
 21
33.785456
 31
0.0
 12
4.761005
 22
33.710456
 32
0.0
 13
4.761005
 23
33.710456
 33
0.0
  0
LINE
  8
DIM
 10
4.061005
 20
33.710456
 30
0.0
 11
3.761339
 21
33.710456
 31
0.0
  0
LINE
  8
DIM
 10
5.211005
 20
33.710456
 30
0.0
 11
5.361948
 21
33.710456
 31
0.0
  0
LINE
  8
DIM
 10
4.761005
 20
34.145761
 30
0.0
 11
4.761005
 21
33.477956
 31
0.0
  0
LINE
  8
DIM
 10
4.511005
 20
34.145761
 30
0.0
 11
4.511005
 21
33.477956
 31
0.0
  0
LINE
  8
DIM
 10
3.070452
 20
20.901213
 30
0.0
 11
1.178634
 21
20.901213
 31
0.0
  0
SOLID
  8
DIM
 10
4.865594
 20
35.428243
 30
0.0
 11
4.748464
 21
35.521947
 31
0.0
 12
4.525916
 22
35.123704
 32
0.0
 13
4.525916
 23
35.123704
 33
0.0
  0
LINE
  8
DIM
 10
4.807029
 20
35.475095
 30
0.0
 11
5.976379
 21
36.936782
 31
0.0
  0
LINE
  8
DIM
 10
5.976379
 20
36.936782
 30
0.0
 11
6.426379
 21
36.936782
 31
0.0
  0
TEXT
  8
DIM
 10
6.702701
 20
36.780532
 30
0.0
 40
0.3125
  1
0.125 x 0.750 SLOT (TYP.)
 41
0.75
  0
TEXT
  8
DIM
 10
6.700752
 20
23.001142
 30
0.0
 40
0.3125
  1
0.125 x 0.750 SLOT (TYP.)
 41
0.75
  0
LINE
  8
DIM
 10
5.976379
 20
23.157392
 30
0.0
 11
6.426379
 21
23.157392
 31
0.0
  0
LINE
  8
DIM
 10
4.807029
 20
21.695705
 30
0.0
 11
5.240205
 21
22.237175
 31
0.0
  0
SOLID
  8
DIM
 10
4.865594
 20
21.648853
 30
0.0
 11
4.748464
 21
21.742557
 31
0.0
 12
4.525916
 22
21.344314
 32
0.0
 13
4.525916
 23
21.344314
 33
0.0
  0
LINE
  8
DIM
 10
5.490529
 20
22.55008
 30
0.0
 11
5.976379
 21
23.157392
 31
0.0
  0
LINE
  8
OBJECT
 10
21.135285
 20
36.127624
 30
0.0
 11
21.135285
 21
31.4712
 31
0.0
  0
ENDSEC
  0
EOF
