  0
SECTION
  2
HEADER
  9
$ACADVER
  1
AC1009
  9
$INSBASE
 10
0.0
 20
0.0
 30
0.0
  9
$EXTMIN
 10
0.0
 20
-0.0000000000000036
 30
0.0
  9
$EXTMAX
 10
21.199999999999999
 20
31.32
 30
0.0
  9
$LIMMIN
 10
0.0
 20
0.0
  9
$LIMMAX
 10
12.0
 20
9.0
  9
$ORTHOMODE
 70
     1
  9
$REGENMODE
 70
     1
  9
$FILLMODE
 70
     1
  9
$QTEXTMODE
 70
     0
  9
$MIRRTEXT
 70
     0
  9
$DRAGMODE
 70
     2
  9
$LTSCALE
 40
0.5
  9
$OSMODE
 70
    37
  9
$ATTMODE
 70
     1
  9
$TEXTSIZE
 40
0.25
  9
$TRACEWID
 40
0.05
  9
$TEXTSTYLE
  7
STANDARD
  9
$CLAYER
  8
OBJECT
  9
$CELTYPE
  6
BYLAYER
  9
$CECOLOR
 62
   256
  9
$DIMSCALE
 40
2.0
  9
$DIMASZ
 40
0.18
  9
$DIMEXO
 40
0.0625
  9
$DIMDLI
 40
0.281
  9
$DIMRND
 40
0.0
  9
$DIMDLE
 40
0.0
  9
$DIMEXE
 40
0.093
  9
$DIMTP
 40
0.0
  9
$DIMTM
 40
0.0
  9
$DIMTXT
 40
0.125
  9
$DIMCEN
 40
0.09
  9
$DIMTSZ
 40
0.0
  9
$DIMTOL
 70
     0
  9
$DIMLIM
 70
     0
  9
$DIMTIH
 70
     1
  9
$DIMTOH
 70
     1
  9
$DIMSE1
 70
     0
  9
$DIMSE2
 70
     0
  9
$DIMTAD
 70
     0
  9
$DIMZIN
 70
     0
  9
$DIMBLK
  1

  9
$DIMASO
 70
     1
  9
$DIMSHO
 70
     1
  9
$DIMPOST
  1

  9
$DIMAPOST
  1

  9
$DIMALT
 70
     0
  9
$DIMALTD
 70
     2
  9
$DIMALTF
 40
25.399999999999999
  9
$DIMLFAC
 40
1.0
  9
$DIMTOFL
 70
     0
  9
$DIMTVP
 40
0.0
  9
$DIMTIX
 70
     0
  9
$DIMSOXD
 70
     0
  9
$DIMSAH
 70
     0
  9
$DIMBLK1
  1

  9
$DIMBLK2
  1

  9
$DIMSTYLE
  2
DIMOUT
  9
$DIMCLRD
 70
     0
  9
$DIMCLRE
 70
     0
  9
$DIMCLRT
 70
     0
  9
$DIMTFAC
 40
1.0
  9
$DIMGAP
 40
0.09
  9
$LUNITS
 70
     2
  9
$LUPREC
 70
     4
  9
$SKETCHINC
 40
0.1
  9
$FILLETRAD
 40
0.0
  9
$AUNITS
 70
     0
  9
$AUPREC
 70
     0
  9
$MENU
  1
.
  9
$ELEVATION
 40
0.0
  9
$PELEVATION
 40
0.0
  9
$THICKNESS
 40
0.0
  9
$LIMCHECK
 70
     0
  9
$BLIPMODE
 70
     0
  9
$CHAMFERA
 40
0.5
  9
$CHAMFERB
 40
0.5
  9
$SKPOLY
 70
     0
  9
$TDCREATE
 40
2451576.722073738
  9
$TDUPDATE
 40
2451786.4455651622
  9
$TDINDWG
 40
0.3689522222
  9
$TDUSRTIMER
 40
0.3689522222
  9
$USRTIMER
 70
     1
  9
$ANGBASE
 50
0.0
  9
$ANGDIR
 70
     0
  9
$PDMODE
 70
     0
  9
$PDSIZE
 40
0.0
  9
$PLINEWID
 40
0.0
  9
$COORDS
 70
     1
  9
$SPLFRAME
 70
     0
  9
$SPLINETYPE
 70
     6
  9
$SPLINESEGS
 70
     8
  9
$ATTDIA
 70
     0
  9
$ATTREQ
 70
     1
  9
$HANDLING
 70
  4097
  9
$HANDSEED
  5
4C97
  9
$SURFTAB1
 70
     6
  9
$SURFTAB2
 70
     6
  9
$SURFTYPE
 70
     6
  9
$SURFU
 70
     6
  9
$SURFV
 70
     6
  9
$UCSNAME
  2

  9
$UCSORG
 10
0.0
 20
0.0
 30
0.0
  9
$UCSXDIR
 10
1.0
 20
0.0
 30
0.0
  9
$UCSYDIR
 10
0.0
 20
1.0
 30
0.0
  9
$PUCSNAME
  2

  9
$PUCSORG
 10
0.0
 20
0.0
 30
0.0
  9
$PUCSXDIR
 10
1.0
 20
0.0
 30
0.0
  9
$PUCSYDIR
 10
0.0
 20
1.0
 30
0.0
  9
$USERI1
 70
     0
  9
$USERI2
 70
     0
  9
$USERI3
 70
     0
  9
$USERI4
 70
     0
  9
$USERI5
 70
     0
  9
$USERR1
 40
0.0
  9
$USERR2
 40
0.0
  9
$USERR3
 40
0.0
  9
$USERR4
 40
0.0
  9
$USERR5
 40
0.0
  9
$WORLDVIEW
 70
     1
  9
$SHADEDGE
 70
     3
  9
$SHADEDIF
 70
    70
  9
$TILEMODE
 70
     1
  9
$MAXACTVP
 70
    64
  9
$PLIMCHECK
 70
     0
  9
$PEXTMIN
 10
1.0000000000000000E+020
 20
1.0000000000000000E+020
 30
1.0000000000000000E+020
  9
$PEXTMAX
 10
-1.0000000000000000E+020
 20
-1.0000000000000000E+020
 30
-1.0000000000000000E+020
  9
$PLIMMIN
 10
0.0
 20
0.0
  9
$PLIMMAX
 10
12.0
 20
9.0
  9
$UNITMODE
 70
     0
  9
$VISRETAIN
 70
     1
  9
$PLINEGEN
 70
     0
  9
$PSLTSCALE
 70
     1
  0
ENDSEC
  0
SECTION
  2
TABLES
  0
TABLE
  2
VPORT
 70
     2
  0
VPORT
  2
*ACTIVE
 70
     0
 10
0.0
 20
0.0
 11
1.0
 21
1.0
 12
10.59958930053066
 22
15.660000218781031
 13
0.0
 23
0.0
 14
0.5
 24
0.5
 15
0.5
 25
0.5
 16
0.0
 26
0.0
 36
1.0
 17
0.0
 27
0.0
 37
0.0
 40
31.67353669062436
 41
1.763157894736842
 42
50.0
 43
0.0
 44
0.0
 50
0.0
 51
0.0
 71
     0
 72
   100
 73
     1
 74
     2
 75
     0
 76
     0
 77
     0
 78
     2
  0
ENDTAB
  0
TABLE
  2
LTYPE
 70
     6
  0
LTYPE
  2
CONTINUOUS
 70
     0
  3
Solid line
 72
    65
 73
     0
 40
0.0
  0
LTYPE
  2
HIDDEN
 70
     0
  3
_ _ _ _ _ _ _ _ _ _ _ _ _ _ _ _ _ _ _ _ _ _ _
 72
    65
 73
     2
 40
0.375
 49
0.25
 49
-0.125
  0
LTYPE
  2
PHANTOM
 70
     0
  3
_____ _ _ _____ _ _ _____ _ _ _____ _ _ ____
 72
    65
 73
     6
 40
2.5
 49
1.25
 49
-0.25
 49
0.25
 49
-0.25
 49
0.25
 49
-0.25
  0
LTYPE
  2
CENTER
 70
     0
  3
____ _ ____ _ ____ _ ____ _ ____ _ ____ _ ____
 72
    65
 73
     4
 40
2.0
 49
1.25
 49
-0.25
 49
0.25
 49
-0.25
  0
LTYPE
  2
HIDDEN2
 70
     0
  3
_ _ _ _ _ _ _ _ _ _ _ _ _ _ _ _ _ _ _ _ _ _ _ _
 72
    65
 73
     2
 40
0.1875
 49
0.125
 49
-0.0625
  0
LTYPE
  2
PHANTOM2
 70
     0
  3
___ _ _ ___ _ _ ___ _ _ ___ _ _ ___ _ _ ___ _ _
 72
    65
 73
     6
 40
1.25
 49
0.625
 49
-0.125
 49
0.125
 49
-0.125
 49
0.125
 49
-0.125
  0
ENDTAB
  0
TABLE
  2
LAYER
 70
     9
  0
LAYER
  2
0
 70
     0
 62
     7
  6
CONTINUOUS
  0
LAYER
  2
OBJECT
 70
     0
 62
     7
  6
CONTINUOUS
  0
LAYER
  2
DIM
 70
     0
 62
     7
  6
CONTINUOUS
  0
LAYER
  2
HIDDEN
 70
     0
 62
     7
  6
HIDDEN
  0
LAYER
  2
BEND
 70
     0
 62
     7
  6
PHANTOM
  0
LAYER
  2
TEXT
 70
     0
 62
     7
  6
CONTINUOUS
  0
LAYER
  2
TITLE
 70
     0
 62
     7
  6
CONTINUOUS
  0
LAYER
  2
CENTER
 70
     0
 62
     7
  6
CENTER
  0
LAYER
  2
DEFPOINTS
 70
     0
 62
     7
  6
CONTINUOUS
  0
ENDTAB
  0
TABLE
  2
STYLE
 70
     2
  0
STYLE
  2
STANDARD
 70
     0
 40
0.0
 41
0.75
 50
0.0
 71
     0
 42
0.25
  3
txt.shx
  4

  0
STYLE
  2
TXT
 70
     0
 40
0.0
 41
0.75
 50
0.0
 71
     0
 42
0.125
  3
TXT.shx
  4

  0
ENDTAB
  0
TABLE
  2
VIEW
 70
     0
  0
ENDTAB
  0
TABLE
  2
UCS
 70
     0
  0
ENDTAB
  0
TABLE
  2
APPID
 70
     1
  0
APPID
  2
ACAD
 70
     0
  0
ENDTAB
  0
TABLE
  2
DIMSTYLE
 70
     2
  0
DIMSTYLE
  2
DIMIN
 70
     0
  3

  4

  5

  6

  7

 40
2.0
 41
0.18
 42
0.0625
 43
0.281
 44
0.093
 45
0.0
 46
0.0
 47
0.0
 48
0.0
140
0.125
141
0.09
142
0.0
143
25.399999999999999
144
1.0
145
0.0
146
1.0
147
0.09
 71
     0
 72
     0
 73
     1
 74
     1
 75
     0
 76
     0
 77
     0
 78
     0
170
     0
171
     2
172
     0
173
     0
174
     1
175
     0
176
     0
177
     0
178
     0
  0
DIMSTYLE
  2
DIMOUT
 70
     0
  3

  4

  5

  6

  7

 40
2.0
 41
0.18
 42
0.0625
 43
0.281
 44
0.093
 45
0.0
 46
0.0
 47
0.0
 48
0.0
140
0.125
141
0.09
142
0.0
143
25.399999999999999
144
1.0
145
0.0
146
1.0
147
0.09
 71
     0
 72
     0
 73
     1
 74
     1
 75
     0
 76
     0
 77
     0
 78
     0
170
     0
171
     2
172
     0
173
     0
174
     0
175
     0
176
     0
177
     0
178
     0
  0
ENDTAB
  0
ENDSEC
  0
SECTION
  2
BLOCKS
  0
BLOCK
  8
0
  2
$MODEL_SPACE
 70
     0
 10
0.0
 20
0.0
 30
0.0
  3
$MODEL_SPACE
  1

  0
ENDBLK
  5
21
  8
0
  0
BLOCK
 67
     1
  8
0
  2
$PAPER_SPACE
 70
     0
 10
0.0
 20
0.0
 30
0.0
  3
$PAPER_SPACE
  1

  0
ENDBLK
  5
1D
 67
     1
  8
0
  0
BLOCK
  8
0
  2
HB
 70
     0
 10
0.0
 20
0.0
 30
0.0
  3
HB
  1

  0
TEXT
  5
1E82
  8
TEXT
 10
0.2078333333333363
 20
15.22007919564008
 30
0.0
 40
0.125
  1
NAME
  7
TXT
 72
     1
 11
0.437000000000003
 21
15.22007919564008
 31
0.0
  0
TEXT
  5
1E83
  8
TEXT
 10
0.2078333333333363
 20
15.428412528973411
 30
0.0
 40
0.125
  1
PART
  7
TXT
 72
     1
 11
0.437000000000003
 21
15.428412528973411
 31
0.0
  0
TEXT
  5
1E84
  8
TEXT
 10
5.6119999999999983
 20
15.22007919564008
 30
0.0
 40
0.125
  1
No.
  7
TXT
 72
     1
 11
5.7369999999999983
 21
15.22007919564008
 31
0.0
  0
TEXT
  5
1E85
  8
TEXT
 10
5.5078333333333314
 20
15.428412528973411
 30
0.0
 40
0.125
  1
PART
  7
TXT
 72
     1
 11
5.7369999999999983
 21
15.428412528973411
 31
0.0
  0
LINE
  5
1E86
  8
TITLE
 10
6.112000000000001
 20
15.598000000000001
 30
0.0
 11
6.112000000000001
 21
15.179999999999991
 31
0.0
  0
LINE
  5
1E87
  8
TITLE
 10
5.362000000000001
 20
15.598000000000001
 30
0.0
 11
5.362000000000001
 21
15.179999999999991
 31
0.0
  0
LINE
  5
1E88
  8
TITLE
 10
5.2999999999999998
 20
15.598000000000001
 30
0.0
 11
5.2999999999999998
 21
15.179999999999991
 31
0.0
  0
LINE
  5
1E89
  8
TITLE
 10
0.8120000000000029
 20
15.179999999999991
 30
0.0
 11
0.8120000000000011
 21
15.598000000000001
 31
0.0
  0
LINE
  5
1E8A
  8
TITLE
 10
0.0620000000000012
 20
15.179999999999991
 30
0.0
 11
10.538
 21
15.179999999999991
 31
0.0
  0
LINE
  5
1E8B
  8
TITLE
 10
10.538
 20
0.0619999999999994
 30
0.0
 11
0.0619999999999976
 21
0.0620000000000012
 31
0.0
  0
LINE
  5
1E8C
  8
TITLE
 10
10.538
 20
15.598000000000001
 30
0.0
 11
10.538
 21
0.0619999999999994
 31
0.0
  0
LINE
  5
1E8D
  8
TITLE
 10
0.0620000000000012
 20
15.598000000000001
 30
0.0
 11
10.538
 21
15.598000000000001
 31
0.0
  0
LINE
  5
1E8E
  8
TITLE
 10
0.0619999999999976
 20
0.0620000000000012
 30
0.0
 11
0.0620000000000012
 21
15.598000000000001
 31
0.0
  0
LINE
  5
1E8F
  8
TITLE
 10
0.0
 20
0.0
 30
0.0
 11
0.0
 21
15.66
 31
0.0
  0
LINE
  5
1E90
  8
TITLE
 10
10.6
 20
-0.0000000000000018
 30
0.0
 11
0.0
 21
0.0
 31
0.0
  0
LINE
  5
1E91
  8
TITLE
 10
10.6
 20
15.659999999999989
 30
0.0
 11
10.6
 21
-0.0000000000000018
 31
0.0
  0
LINE
  5
1E92
  8
TITLE
 10
0.0
 20
15.66
 30
0.0
 11
10.6
 21
15.659999999999989
 31
0.0
  0
ENDBLK
  5
1E94
  8
0
  0
BLOCK
  8
0
  2
*D2
 70
     1
 10
0.0
 20
0.0
 30
0.0
  3
*D2
  1

  0
LINE
  5
37F4
  8
DIM
 62
     0
 10
4.3401569284764143
 20
2.513876482959545
 30
0.0
 11
4.3401569284764143
 21
1.3546985973349941
 31
0.0
  0
LINE
  5
37F5
  8
DIM
 62
     0
 10
11.850156928476419
 20
2.513876482959545
 30
0.0
 11
11.850156928476419
 21
1.3546985973349941
 31
0.0
  0
LINE
  5
37F6
  8
DIM
 62
     0
 10
4.7001569284764138
 20
1.540698597334994
 30
0.0
 11
7.5870319284764172
 21
1.540698597334994
 31
0.0
  0
LINE
  5
37F7
  8
DIM
 62
     0
 10
11.49015692847642
 20
1.540698597334994
 30
0.0
 11
8.6032819284764166
 21
1.540698597334994
 31
0.0
  0
SOLID
  5
37F8
  8
DIM
 62
     0
 10
4.7001569284764138
 20
1.6006985973349941
 30
0.0
 11
4.7001569284764138
 21
1.480698597334994
 31
0.0
 12
4.3401569284764143
 22
1.540698597334994
 32
0.0
 13
4.3401569284764143
 23
1.540698597334994
 33
0.0
  0
SOLID
  5
37F9
  8
DIM
 62
     0
 10
11.49015692847642
 20
1.6006985973349941
 30
0.0
 11
11.49015692847642
 21
1.480698597334994
 31
0.0
 12
11.850156928476419
 22
1.540698597334994
 32
0.0
 13
11.850156928476419
 23
1.540698597334994
 33
0.0
  0
TEXT
  5
37FA
  8
OBJECT
 62
     0
 10
7.767031928476416
 20
1.415698597334994
 30
0.0
 40
0.25
  1
7.510
 41
0.75
  0
POINT
  5
37FB
  8
DEFPOINTS
 62
     0
 10
4.3401569284764143
 20
2.638876482959545
 30
0.0
  0
POINT
  5
37FC
  8
DEFPOINTS
 62
     0
 10
11.850156928476419
 20
2.638876482959545
 30
0.0
  0
POINT
  5
37FD
  8
DEFPOINTS
 62
     0
 10
11.850156928476419
 20
1.540698597334994
 30
0.0
  0
ENDBLK
  5
2BF2
  8
0
  0
BLOCK
  8
0
  2
*D3
 70
     1
 10
0.0
 20
0.0
 30
0.0
  3
*D3
  1

  0
LINE
  5
381C
  8
DIM
 62
     0
 10
4.2151569284764143
 20
2.638876482959545
 30
0.0
 11
2.7988860805691109
 21
2.6388764829595459
 31
0.0
  0
LINE
  5
381D
  8
DIM
 62
     0
 10
4.2151569284764143
 20
3.888876482959545
 30
0.0
 11
2.7988860805691109
 21
3.8888764829595459
 31
0.0
  0
LINE
  5
381E
  8
DIM
 62
     0
 10
2.9848860805691109
 20
2.278876482959546
 30
0.0
 11
2.9848860805691109
 21
1.9188764829595459
 31
0.0
  0
LINE
  5
381F
  8
DIM
 62
     0
 10
2.9848860805691109
 20
4.2488764829595462
 30
0.0
 11
2.9848860805691109
 21
4.6088764829595448
 31
0.0
  0
SOLID
  5
3820
  8
DIM
 62
     0
 10
2.9248860805691108
 20
2.278876482959546
 30
0.0
 11
3.0448860805691109
 21
2.278876482959546
 31
0.0
 12
2.9848860805691109
 22
2.6388764829595459
 32
0.0
 13
2.9848860805691109
 23
2.6388764829595459
 33
0.0
  0
SOLID
  5
3821
  8
DIM
 62
     0
 10
2.9248860805691108
 20
4.2488764829595462
 30
0.0
 11
3.0448860805691109
 21
4.2488764829595462
 31
0.0
 12
2.9848860805691109
 22
3.8888764829595459
 32
0.0
 13
2.9848860805691109
 23
3.8888764829595459
 33
0.0
  0
TEXT
  5
3822
  8
OBJECT
 62
     0
 10
2.65676108056911
 20
3.1388764829595459
 30
0.0
 40
0.25
  1
1.250
 41
0.75
  0
POINT
  5
3823
  8
DEFPOINTS
 62
     0
 10
4.3401569284764143
 20
2.638876482959545
 30
0.0
  0
POINT
  5
3824
  8
DEFPOINTS
 62
     0
 10
4.3401569284764143
 20
3.888876482959545
 30
0.0
  0
POINT
  5
3825
  8
DEFPOINTS
 62
     0
 10
2.9848860805691109
 20
3.8888764829595459
 30
0.0
  0
ENDBLK
  5
2BFF
  8
0
  0
BLOCK
  8
0
  2
*D4
 70
     1
 10
0.0
 20
0.0
 30
0.0
  3
*D4
  1

  0
LINE
  5
37E0
  8
DIM
 62
     0
 10
12.70765692847641
 20
11.907532391307461
 30
0.0
 11
13.463773312511149
 21
11.907532391307461
 31
0.0
  0
LINE
  5
37E1
  8
DIM
 62
     0
 10
8.2201569284764133
 20
10.53453239130747
 30
0.0
 11
13.463773312511149
 21
10.53453239130747
 31
0.0
  0
LINE
  5
37E2
  8
DIM
 62
     0
 10
13.27777331251116
 20
12.26753239130746
 30
0.0
 11
13.27777331251116
 21
12.62753239130747
 31
0.0
  0
LINE
  5
37E3
  8
DIM
 62
     0
 10
13.277773312511149
 20
10.174532391307469
 30
0.0
 11
13.277773312511149
 21
9.8145323913074698
 31
0.0
  0
SOLID
  5
37E4
  8
DIM
 62
     0
 10
13.217773312511159
 20
12.26753239130746
 30
0.0
 11
13.33777331251116
 21
12.26753239130746
 31
0.0
 12
13.277773312511149
 22
11.907532391307461
 32
0.0
 13
13.277773312511149
 23
11.907532391307461
 33
0.0
  0
SOLID
  5
37E5
  8
DIM
 62
     0
 10
13.217773312511151
 20
10.174532391307469
 30
0.0
 11
13.33777331251115
 21
10.174532391307469
 31
0.0
 12
13.277773312511149
 22
10.53453239130747
 32
0.0
 13
13.277773312511149
 23
10.53453239130747
 33
0.0
  0
TEXT
  5
37E6
  8
OBJECT
 62
     0
 10
12.934023312511149
 20
11.096032391307469
 30
0.0
 40
0.25
  1
1.373
 41
0.75
  0
POINT
  5
37E7
  8
DEFPOINTS
 62
     0
 10
12.58265692847641
 20
11.907532391307461
 30
0.0
  0
POINT
  5
37E8
  8
DEFPOINTS
 62
     0
 10
8.0951569284764133
 20
10.53453239130747
 30
0.0
  0
POINT
  5
37E9
  8
DEFPOINTS
 62
     0
 10
13.277773312511149
 20
10.53453239130747
 30
0.0
  0
ENDBLK
  5
2C27
  8
0
  0
BLOCK
  8
0
  2
*D5
 70
     1
 10
0.0
 20
0.0
 30
0.0
  3
*D5
  1

  0
LINE
  5
383A
  8
DIM
 62
     0
 10
12.70765692847641
 20
11.907532391307461
 30
0.0
 11
14.126416296244731
 21
11.907532391307461
 31
0.0
  0
LINE
  5
383B
  8
DIM
 62
     0
 10
11.763156928476411
 20
8.2465323913074702
 30
0.0
 11
14.126416296244731
 21
8.2465323913074702
 31
0.0
  0
LINE
  5
383C
  8
DIM
 62
     0
 10
13.940416296244731
 20
11.54753239130747
 30
0.0
 11
13.940416296244731
 21
10.38203239130746
 31
0.0
  0
LINE
  5
383D
  8
DIM
 62
     0
 10
13.940416296244731
 20
8.6065323913074696
 30
0.0
 11
13.940416296244731
 21
9.7720323913074694
 31
0.0
  0
SOLID
  5
383E
  8
DIM
 62
     0
 10
13.88041629624473
 20
11.54753239130747
 30
0.0
 11
14.00041629624473
 21
11.54753239130747
 31
0.0
 12
13.940416296244731
 22
11.907532391307461
 32
0.0
 13
13.940416296244731
 23
11.907532391307461
 33
0.0
  0
SOLID
  5
383F
  8
DIM
 62
     0
 10
13.88041629624473
 20
8.6065323913074696
 30
0.0
 11
14.00041629624473
 21
8.6065323913074696
 31
0.0
 12
13.940416296244731
 22
8.2465323913074702
 32
0.0
 13
13.940416296244731
 23
8.2465323913074702
 33
0.0
  0
TEXT
  5
3840
  8
OBJECT
 62
     0
 10
13.596666296244731
 20
9.9520323913074726
 30
0.0
 40
0.25
  1
3.661
 41
0.75
  0
POINT
  5
3841
  8
DEFPOINTS
 62
     0
 10
12.58265692847641
 20
11.907532391307461
 30
0.0
  0
POINT
  5
3842
  8
DEFPOINTS
 62
     0
 10
11.638156928476411
 20
8.2465323913074702
 30
0.0
  0
POINT
  5
3843
  8
DEFPOINTS
 62
     0
 10
13.940416296244731
 20
8.2465323913074702
 30
0.0
  0
ENDBLK
  5
2C34
  8
0
  0
BLOCK
  8
0
  2
*D6
 70
     1
 10
0.0
 20
0.0
 30
0.0
  3
*D6
  1

  0
LINE
  5
3844
  8
DIM
 62
     0
 10
12.117656928476411
 20
11.90753239130747
 30
0.0
 11
14.126416296244731
 21
11.90753239130747
 31
0.0
  0
LINE
  5
3845
  8
DIM
 62
     0
 10
11.763156928476411
 20
15.568532391307469
 30
0.0
 11
14.126416296244731
 21
15.568532391307469
 31
0.0
  0
LINE
  5
3846
  8
DIM
 62
     0
 10
13.940416296244731
 20
12.267532391307469
 30
0.0
 11
13.940416296244731
 21
13.433032391307471
 31
0.0
  0
LINE
  5
3847
  8
DIM
 62
     0
 10
13.940416296244731
 20
15.208532391307459
 30
0.0
 11
13.940416296244731
 21
14.04303239130747
 31
0.0
  0
SOLID
  5
3848
  8
DIM
 62
     0
 10
13.88041629624473
 20
12.267532391307469
 30
0.0
 11
14.00041629624474
 21
12.267532391307469
 31
0.0
 12
13.940416296244731
 22
11.90753239130747
 32
0.0
 13
13.940416296244731
 23
11.90753239130747
 33
0.0
  0
SOLID
  5
3849
  8
DIM
 62
     0
 10
13.88041629624473
 20
15.208532391307459
 30
0.0
 11
14.00041629624474
 21
15.208532391307459
 31
0.0
 12
13.940416296244731
 22
15.568532391307469
 32
0.0
 13
13.940416296244731
 23
15.568532391307469
 33
0.0
  0
TEXT
  5
384A
  8
OBJECT
 62
     0
 10
13.596666296244731
 20
13.61303239130747
 30
0.0
 40
0.25
  1
3.661
 41
0.75
  0
POINT
  5
384B
  8
DEFPOINTS
 62
     0
 10
11.992656928476411
 20
11.90753239130747
 30
0.0
  0
POINT
  5
384C
  8
DEFPOINTS
 62
     0
 10
11.638156928476411
 20
15.568532391307469
 30
0.0
  0
POINT
  5
384D
  8
DEFPOINTS
 62
     0
 10
13.940416296244731
 20
15.568532391307469
 30
0.0
  0
ENDBLK
  5
2C41
  8
0
  0
BLOCK
  8
0
  2
*D7
 70
     1
 10
0.0
 20
0.0
 30
0.0
  3
*D7
  1

  0
LINE
  5
3812
  8
DIM
 62
     0
 10
8.0951569284764453
 20
7.5325323913074591
 30
0.0
 11
8.0951569284764453
 21
6.944644036889553
 31
0.0
  0
LINE
  5
3813
  8
DIM
 62
     0
 10
4.5521569284764141
 20
8.1215323913074702
 30
0.0
 11
4.5521569284764141
 21
6.944644036889553
 31
0.0
  0
LINE
  5
3814
  8
DIM
 62
     0
 10
7.7351569284764441
 20
7.130644036889553
 30
0.0
 11
6.8786569284764294
 21
7.130644036889553
 31
0.0
  0
LINE
  5
3815
  8
DIM
 62
     0
 10
4.9121569284764144
 20
7.130644036889553
 30
0.0
 11
5.7686569284764291
 21
7.130644036889553
 31
0.0
  0
SOLID
  5
3816
  8
DIM
 62
     0
 10
7.7351569284764441
 20
7.1906440368895526
 30
0.0
 11
7.7351569284764441
 21
7.0706440368895542
 31
0.0
 12
8.0951569284764453
 22
7.130644036889553
 32
0.0
 13
8.0951569284764453
 23
7.130644036889553
 33
0.0
  0
SOLID
  5
3817
  8
DIM
 62
     0
 10
4.9121569284764144
 20
7.1906440368895526
 30
0.0
 11
4.9121569284764144
 21
7.0706440368895542
 31
0.0
 12
4.5521569284764141
 22
7.130644036889553
 32
0.0
 13
4.5521569284764141
 23
7.130644036889553
 33
0.0
  0
TEXT
  5
3818
  8
OBJECT
 62
     0
 10
5.9486569284764288
 20
7.005644036889553
 30
0.0
 40
0.25
  1
3.543
 41
0.75
  0
POINT
  5
3819
  8
DEFPOINTS
 62
     0
 10
8.0951569284764453
 20
7.6575323913074591
 30
0.0
  0
POINT
  5
381A
  8
DEFPOINTS
 62
     0
 10
4.5521569284764141
 20
8.2465323913074702
 30
0.0
  0
POINT
  5
381B
  8
DEFPOINTS
 62
     0
 10
4.5521569284764141
 20
7.130644036889553
 30
0.0
  0
ENDBLK
  5
2C4E
  8
0
  0
BLOCK
  8
0
  2
*D8
 70
     1
 10
0.0
 20
0.0
 30
0.0
  3
*D8
  1

  0
LINE
  5
37AE
  8
DIM
 62
     0
 10
8.0951569284764453
 20
7.5325323913074591
 30
0.0
 11
8.0951569284764453
 21
6.944644036889553
 31
0.0
  0
LINE
  5
37AF
  8
DIM
 62
     0
 10
11.638156928476411
 20
8.1215323913074702
 30
0.0
 11
11.638156928476411
 21
6.944644036889553
 31
0.0
  0
LINE
  5
37B0
  8
DIM
 62
     0
 10
8.4551569284764447
 20
7.130644036889553
 30
0.0
 11
9.311656928476431
 21
7.130644036889553
 31
0.0
  0
LINE
  5
37B1
  8
DIM
 62
     0
 10
11.27815692847641
 20
7.130644036889553
 30
0.0
 11
10.42165692847643
 21
7.130644036889553
 31
0.0
  0
SOLID
  5
37B2
  8
DIM
 62
     0
 10
8.4551569284764447
 20
7.1906440368895526
 30
0.0
 11
8.4551569284764447
 21
7.0706440368895542
 31
0.0
 12
8.0951569284764453
 22
7.130644036889553
 32
0.0
 13
8.0951569284764453
 23
7.130644036889553
 33
0.0
  0
SOLID
  5
37B3
  8
DIM
 62
     0
 10
11.27815692847641
 20
7.1906440368895526
 30
0.0
 11
11.27815692847641
 21
7.0706440368895542
 31
0.0
 12
11.638156928476411
 22
7.130644036889553
 32
0.0
 13
11.638156928476411
 23
7.130644036889553
 33
0.0
  0
TEXT
  5
37B4
  8
OBJECT
 62
     0
 10
9.4916569284764307
 20
7.005644036889553
 30
0.0
 40
0.25
  1
3.543
 41
0.75
  0
POINT
  5
37B5
  8
DEFPOINTS
 62
     0
 10
8.0951569284764453
 20
7.6575323913074591
 30
0.0
  0
POINT
  5
37B6
  8
DEFPOINTS
 62
     0
 10
11.638156928476411
 20
8.2465323913074702
 30
0.0
  0
POINT
  5
37B7
  8
DEFPOINTS
 62
     0
 10
11.638156928476411
 20
7.130644036889553
 30
0.0
  0
ENDBLK
  5
2C5B
  8
0
  0
BLOCK
  8
0
  2
*D9
 70
     1
 10
0.0
 20
0.0
 30
0.0
  3
*D9
  1

  0
LINE
  5
3808
  8
DIM
 62
     0
 10
8.0951569284764453
 20
16.28253239130748
 30
0.0
 11
8.0951569284764453
 21
16.902017231086919
 31
0.0
  0
LINE
  5
3809
  8
DIM
 62
     0
 10
4.197656928476416
 20
12.03253239130747
 30
0.0
 11
4.197656928476416
 21
16.902017231086919
 31
0.0
  0
LINE
  5
380A
  8
DIM
 62
     0
 10
7.7351569284764441
 20
16.716017231086919
 30
0.0
 11
6.7014069284764304
 21
16.716017231086919
 31
0.0
  0
LINE
  5
380B
  8
DIM
 62
     0
 10
4.5576569284764163
 20
16.716017231086919
 30
0.0
 11
5.5914069284764301
 21
16.716017231086919
 31
0.0
  0
SOLID
  5
380C
  8
DIM
 62
     0
 10
7.7351569284764441
 20
16.776017231086922
 30
0.0
 11
7.7351569284764441
 21
16.656017231086921
 31
0.0
 12
8.0951569284764453
 22
16.716017231086919
 32
0.0
 13
8.0951569284764453
 23
16.716017231086919
 33
0.0
  0
SOLID
  5
380D
  8
DIM
 62
     0
 10
4.5576569284764163
 20
16.776017231086922
 30
0.0
 11
4.5576569284764163
 21
16.656017231086921
 31
0.0
 12
4.197656928476416
 22
16.716017231086919
 32
0.0
 13
4.197656928476416
 23
16.716017231086919
 33
0.0
  0
TEXT
  5
380E
  8
OBJECT
 62
     0
 10
5.7714069284764298
 20
16.591017231086919
 30
0.0
 40
0.25
  1
3.898
 41
0.75
  0
POINT
  5
380F
  8
DEFPOINTS
 62
     0
 10
8.0951569284764453
 20
16.15753239130748
 30
0.0
  0
POINT
  5
3810
  8
DEFPOINTS
 62
     0
 10
4.197656928476416
 20
11.90753239130747
 30
0.0
  0
POINT
  5
3811
  8
DEFPOINTS
 62
     0
 10
4.197656928476416
 20
16.716017231086919
 30
0.0
  0
ENDBLK
  5
2C68
  8
0
  0
BLOCK
  8
0
  2
*D10
 70
     1
 10
0.0
 20
0.0
 30
0.0
  3
*D10
  1

  0
LINE
  5
37EA
  8
DIM
 62
     0
 10
8.0951569284764453
 20
16.28253239130748
 30
0.0
 11
8.0951569284764453
 21
16.902017231086919
 31
0.0
  0
LINE
  5
37EB
  8
DIM
 62
     0
 10
11.992656928476411
 20
12.03253239130747
 30
0.0
 11
11.992656928476411
 21
16.902017231086919
 31
0.0
  0
LINE
  5
37EC
  8
DIM
 62
     0
 10
8.4551569284764447
 20
16.716017231086919
 30
0.0
 11
9.48890692847643
 21
16.716017231086919
 31
0.0
  0
LINE
  5
37ED
  8
DIM
 62
     0
 10
11.632656928476409
 20
16.716017231086919
 30
0.0
 11
10.598906928476429
 21
16.716017231086919
 31
0.0
  0
SOLID
  5
37EE
  8
DIM
 62
     0
 10
8.4551569284764447
 20
16.776017231086922
 30
0.0
 11
8.4551569284764447
 21
16.656017231086921
 31
0.0
 12
8.0951569284764453
 22
16.716017231086919
 32
0.0
 13
8.0951569284764453
 23
16.716017231086919
 33
0.0
  0
SOLID
  5
37EF
  8
DIM
 62
     0
 10
11.632656928476409
 20
16.776017231086922
 30
0.0
 11
11.632656928476409
 21
16.656017231086921
 31
0.0
 12
11.992656928476411
 22
16.716017231086919
 32
0.0
 13
11.992656928476411
 23
16.716017231086919
 33
0.0
  0
TEXT
  5
37F0
  8
OBJECT
 62
     0
 10
9.6689069284764297
 20
16.591017231086919
 30
0.0
 40
0.25
  1
3.898
 41
0.75
  0
POINT
  5
37F1
  8
DEFPOINTS
 62
     0
 10
8.0951569284764453
 20
16.15753239130748
 30
0.0
  0
POINT
  5
37F2
  8
DEFPOINTS
 62
     0
 10
11.992656928476411
 20
11.90753239130747
 30
0.0
  0
POINT
  5
37F3
  8
DEFPOINTS
 62
     0
 10
11.992656928476411
 20
16.716017231086919
 30
0.0
  0
ENDBLK
  5
2C75
  8
0
  0
BLOCK
  8
0
  2
*D11
 70
     1
 10
0.0
 20
0.0
 30
0.0
  3
*D11
  1

  0
LINE
  5
3830
  8
DIM
 62
     0
 10
12.152156928476421
 20
24.564065861265551
 30
0.0
 11
14.22633479435035
 21
24.564065861265551
 31
0.0
  0
LINE
  5
3831
  8
DIM
 62
     0
 10
12.152156928476421
 20
19.52703050553103
 30
0.0
 11
14.22633479435034
 21
19.52703050553103
 31
0.0
  0
LINE
  5
3832
  8
DIM
 62
     0
 10
14.04033479435034
 20
24.204065861265551
 30
0.0
 11
14.04033479435034
 21
22.06596927100826
 31
0.0
  0
LINE
  5
3833
  8
DIM
 62
     0
 10
14.04033479435034
 20
19.88703050553103
 30
0.0
 11
14.04033479435034
 21
21.455969271008261
 31
0.0
  0
SOLID
  5
3834
  8
DIM
 62
     0
 10
13.980334794350339
 20
24.204065861265551
 30
0.0
 11
14.100334794350349
 21
24.204065861265551
 31
0.0
 12
14.04033479435034
 22
24.564065861265551
 32
0.0
 13
14.04033479435034
 23
24.564065861265551
 33
0.0
  0
SOLID
  5
3835
  8
DIM
 62
     0
 10
13.980334794350339
 20
19.88703050553103
 30
0.0
 11
14.10033479435034
 21
19.88703050553103
 31
0.0
 12
14.04033479435034
 22
19.52703050553103
 32
0.0
 13
14.04033479435034
 23
19.52703050553103
 33
0.0
  0
TEXT
  5
3836
  8
OBJECT
 62
     0
 10
13.72783479435034
 20
21.635969271008261
 30
0.0
 40
0.25
  1
5.115
 41
0.75
  0
POINT
  5
3837
  8
DEFPOINTS
 62
     0
 10
12.027156928476421
 20
24.564065861265551
 30
0.0
  0
POINT
  5
3838
  8
DEFPOINTS
 62
     0
 10
12.027156928476421
 20
19.52703050553103
 30
0.0
  0
POINT
  5
3839
  8
DEFPOINTS
 62
     0
 10
14.04033479435034
 20
19.52703050553103
 30
0.0
  0
ENDBLK
  5
2CCB
  8
0
  0
BLOCK
  8
0
  2
*D12
 70
     1
 10
0.0
 20
0.0
 30
0.0
  3
*D12
  1

  0
LINE
  5
37CC
  8
DIM
 62
     0
 10
4.1631569284764209
 20
19.40203050553103
 30
0.0
 11
4.1631569284764209
 21
17.912330627630428
 31
0.0
  0
LINE
  5
37CD
  8
DIM
 62
     0
 10
12.027156928476421
 20
19.40203050553103
 30
0.0
 11
12.027156928476421
 21
17.912330627630428
 31
0.0
  0
LINE
  5
37CE
  8
DIM
 62
     0
 10
4.5231569284764221
 20
18.098330627630428
 30
0.0
 11
7.5401569284764216
 21
18.098330627630428
 31
0.0
  0
LINE
  5
37CF
  8
DIM
 62
     0
 10
11.66715692847642
 20
18.098330627630428
 30
0.0
 11
8.6501569284764201
 21
18.098330627630428
 31
0.0
  0
SOLID
  5
37D0
  8
DIM
 62
     0
 10
4.5231569284764221
 20
18.158330627630431
 30
0.0
 11
4.5231569284764221
 21
18.03833062763043
 31
0.0
 12
4.1631569284764209
 22
18.098330627630428
 32
0.0
 13
4.1631569284764209
 23
18.098330627630428
 33
0.0
  0
SOLID
  5
37D1
  8
DIM
 62
     0
 10
11.66715692847642
 20
18.158330627630431
 30
0.0
 11
11.66715692847642
 21
18.03833062763043
 31
0.0
 12
12.027156928476421
 22
18.098330627630428
 32
0.0
 13
12.027156928476421
 23
18.098330627630428
 33
0.0
  0
TEXT
  5
37D2
  8
OBJECT
 62
     0
 10
7.7201569284764222
 20
17.973330627630428
 30
0.0
 40
0.25
  1
7.864
 41
0.75
  0
POINT
  5
37D3
  8
DEFPOINTS
 62
     0
 10
4.1631569284764209
 20
19.52703050553103
 30
0.0
  0
POINT
  5
37D4
  8
DEFPOINTS
 62
     0
 10
12.027156928476421
 20
19.52703050553103
 30
0.0
  0
POINT
  5
37D5
  8
DEFPOINTS
 62
     0
 10
12.027156928476421
 20
18.098330627630428
 30
0.0
  0
ENDBLK
  5
2CD8
  8
0
  0
BLOCK
  8
0
  2
*D13
 70
     1
 10
0.0
 20
0.0
 30
0.0
  3
*D13
  1

  0
LINE
  5
37D6
  8
DIM
 62
     0
 10
3.6076569284764188
 20
19.161333554386331
 30
0.0
 11
3.6076569284764188
 21
17.457583933589252
 31
0.0
  0
LINE
  5
37D7
  8
DIM
 62
     0
 10
12.582656928476419
 20
19.161333554386331
 30
0.0
 11
12.582656928476419
 21
17.457583933589252
 31
0.0
  0
LINE
  5
37D8
  8
DIM
 62
     0
 10
3.9676569284764192
 20
17.643583933589252
 30
0.0
 11
7.5401569284764198
 21
17.643583933589252
 31
0.0
  0
LINE
  5
37D9
  8
DIM
 62
     0
 10
12.22265692847642
 20
17.643583933589252
 30
0.0
 11
8.6501569284764201
 21
17.643583933589252
 31
0.0
  0
SOLID
  5
37DA
  8
DIM
 62
     0
 10
3.9676569284764192
 20
17.70358393358925
 30
0.0
 11
3.9676569284764192
 21
17.583583933589249
 31
0.0
 12
3.6076569284764188
 22
17.643583933589252
 32
0.0
 13
3.6076569284764188
 23
17.643583933589252
 33
0.0
  0
SOLID
  5
37DB
  8
DIM
 62
     0
 10
12.22265692847642
 20
17.70358393358925
 30
0.0
 11
12.22265692847642
 21
17.583583933589249
 31
0.0
 12
12.582656928476419
 22
17.643583933589252
 32
0.0
 13
12.582656928476419
 23
17.643583933589252
 33
0.0
  0
TEXT
  5
37DC
  8
OBJECT
 62
     0
 10
7.7201569284764204
 20
17.518583933589252
 30
0.0
 40
0.25
  1
8.975
 41
0.75
  0
POINT
  5
37DD
  8
DEFPOINTS
 62
     0
 10
3.6076569284764188
 20
19.286333554386331
 30
0.0
  0
POINT
  5
37DE
  8
DEFPOINTS
 62
     0
 10
12.582656928476419
 20
19.286333554386331
 30
0.0
  0
POINT
  5
37DF
  8
DEFPOINTS
 62
     0
 10
12.582656928476419
 20
17.643583933589252
 30
0.0
  0
ENDBLK
  5
2CE5
  8
0
  0
BLOCK
  8
0
  2
*D14
 70
     1
 10
0.0
 20
0.0
 30
0.0
  3
*D14
  1

  0
LINE
  5
3862
  8
DIM
 62
     0
 10
17.58961792040407
 20
27.598333554386329
 30
0.0
 11
19.182193927425288
 21
27.598333554386329
 31
0.0
  0
LINE
  5
3863
  8
DIM
 62
     0
 10
17.58961792040407
 20
19.098333554386329
 30
0.0
 11
19.182193927425288
 21
19.098333554386329
 31
0.0
  0
LINE
  5
3864
  8
DIM
 62
     0
 10
18.996193927425288
 20
27.23833355438633
 30
0.0
 11
18.996193927425288
 21
23.653333554386329
 31
0.0
  0
LINE
  5
3865
  8
DIM
 62
     0
 10
18.996193927425288
 20
19.458333554386329
 30
0.0
 11
18.996193927425288
 21
23.043333554386329
 31
0.0
  0
SOLID
  5
3866
  8
DIM
 62
     0
 10
18.9361939274253
 20
27.23833355438633
 30
0.0
 11
19.056193927425291
 21
27.23833355438633
 31
0.0
 12
18.996193927425288
 22
27.598333554386329
 32
0.0
 13
18.996193927425288
 23
27.598333554386329
 33
0.0
  0
SOLID
  5
3867
  8
DIM
 62
     0
 10
18.93619392742529
 20
19.458333554386329
 30
0.0
 11
19.056193927425291
 21
19.458333554386329
 31
0.0
 12
18.996193927425288
 22
19.098333554386329
 32
0.0
 13
18.996193927425288
 23
19.098333554386329
 33
0.0
  0
TEXT
  5
3868
  8
OBJECT
 62
     0
 10
18.652443927425288
 20
23.223333554386329
 30
0.0
 40
0.25
  1
8.500
 41
0.75
  0
POINT
  5
3869
  8
DEFPOINTS
 62
     0
 10
17.46461792040407
 20
27.598333554386329
 30
0.0
  0
POINT
  5
386A
  8
DEFPOINTS
 62
     0
 10
17.46461792040407
 20
19.098333554386329
 30
0.0
  0
POINT
  5
386B
  8
DEFPOINTS
 62
     0
 10
18.996193927425288
 20
19.098333554386329
 30
0.0
  0
ENDBLK
  5
2D12
  8
0
  0
BLOCK
  8
0
  2
*D15
 70
     1
 10
0.0
 20
0.0
 30
0.0
  3
*D15
  1

  0
LINE
  5
388A
  8
DIM
 62
     0
 10
18.234617920404059
 20
19.431019337588769
 30
0.0
 11
18.234617920404059
 21
18.413392518840698
 31
0.0
  0
LINE
  5
388B
  8
DIM
 62
     0
 10
16.259617920404072
 20
19.014016250844222
 30
0.0
 11
16.259617920404072
 21
18.413392518840698
 31
0.0
  0
LINE
  5
388C
  8
DIM
 62
     0
 10
18.594617920404069
 20
18.599392518840698
 30
0.0
 11
18.954617920404061
 21
18.599392518840698
 31
0.0
  0
LINE
  5
388D
  8
DIM
 62
     0
 10
15.89961792040407
 20
18.599392518840698
 30
0.0
 11
15.539617920404069
 21
18.599392518840698
 31
0.0
  0
SOLID
  5
388E
  8
DIM
 62
     0
 10
18.594617920404069
 20
18.659392518840701
 30
0.0
 11
18.594617920404069
 21
18.53939251884071
 31
0.0
 12
18.234617920404059
 22
18.599392518840698
 32
0.0
 13
18.234617920404059
 23
18.599392518840698
 33
0.0
  0
SOLID
  5
388F
  8
DIM
 62
     0
 10
15.89961792040407
 20
18.659392518840701
 30
0.0
 11
15.89961792040407
 21
18.53939251884071
 31
0.0
 12
16.259617920404072
 22
18.599392518840698
 32
0.0
 13
16.259617920404072
 23
18.599392518840698
 33
0.0
  0
TEXT
  5
3890
  8
OBJECT
 62
     0
 10
16.903367920404069
 20
18.474392518840698
 30
0.0
 40
0.25
  1
1.975
 41
0.75
  0
POINT
  5
3891
  8
DEFPOINTS
 62
     0
 10
18.234617920404059
 20
19.556019337588769
 30
0.0
  0
POINT
  5
3892
  8
DEFPOINTS
 62
     0
 10
16.259617920404072
 20
19.139016250844222
 30
0.0
  0
POINT
  5
3893
  8
DEFPOINTS
 62
     0
 10
16.259617920404072
 20
18.599392518840698
 30
0.0
  0
ENDBLK
  5
2D1F
  8
0
  0
BLOCK
  8
0
  2
*D16
 70
     1
 10
0.0
 20
0.0
 30
0.0
  3
*D16
  1

  0
LINE
  5
3894
  8
DIM
 62
     0
 10
15.234617920404061
 20
27.586984365161332
 30
0.0
 11
15.234617920404061
 21
28.433230894601
 31
0.0
  0
LINE
  5
3895
  8
DIM
 62
     0
 10
18.234617920404059
 20
27.2656477711839
 30
0.0
 11
18.234617920404059
 21
28.433230894601
 31
0.0
  0
LINE
  5
3896
  8
DIM
 62
     0
 10
15.594617920404071
 20
28.247230894601
 30
0.0
 11
16.226492920404059
 21
28.247230894601
 31
0.0
  0
LINE
  5
3897
  8
DIM
 62
     0
 10
17.87461792040407
 20
28.247230894601
 30
0.0
 11
17.242742920404069
 21
28.247230894601
 31
0.0
  0
SOLID
  5
3898
  8
DIM
 62
     0
 10
15.594617920404071
 20
28.307230894600998
 30
0.0
 11
15.594617920404071
 21
28.187230894601001
 31
0.0
 12
15.234617920404061
 22
28.247230894601
 32
0.0
 13
15.234617920404061
 23
28.247230894601
 33
0.0
  0
SOLID
  5
3899
  8
DIM
 62
     0
 10
17.87461792040407
 20
28.307230894600998
 30
0.0
 11
17.87461792040407
 21
28.187230894601001
 31
0.0
 12
18.234617920404059
 22
28.247230894601
 32
0.0
 13
18.234617920404059
 23
28.247230894601
 33
0.0
  0
TEXT
  5
389A
  8
OBJECT
 62
     0
 10
16.406492920404059
 20
28.122230894601
 30
0.0
 40
0.25
  1
3.000
 41
0.75
  0
POINT
  5
389B
  8
DEFPOINTS
 62
     0
 10
15.234617920404061
 20
27.461984365161332
 30
0.0
  0
POINT
  5
389C
  8
DEFPOINTS
 62
     0
 10
18.234617920404059
 20
27.1406477711839
 30
0.0
  0
POINT
  5
389D
  8
DEFPOINTS
 62
     0
 10
18.234617920404059
 20
28.247230894601
 30
0.0
  0
ENDBLK
  5
2D50
  8
0
  0
BLOCK
  8
0
  2
*D17
 70
     1
 10
0.0
 20
0.0
 30
0.0
  3
*D17
  1

  0
LINE
  5
389E
  8
DIM
 62
     0
 10
16.259617920404072
 20
18.028783671955349
 30
0.0
 11
16.259617920404072
 21
17.600886017256471
 31
0.0
  0
LINE
  5
389F
  8
DIM
 62
     0
 10
16.281323942612438
 20
19.0159152817177
 30
0.0
 11
16.52671143248099
 21
17.62425367166453
 31
0.0
  0
ARC
  5
38A0
  8
DIM
 62
     0
 10
16.259617920404072
 20
19.139016250844229
 30
0.0
 40
1.3521302335877581
 50
239.117928542116
 51
269.99999999999977
  0
LINE
  5
38A1
  8
DIM
 62
     0
 10
15.56560634674768
 20
17.978583528014909
 30
0.0
 11
15.205606346747681
 21
17.978583528014909
 31
0.0
  0
ARC
  5
38A2
  8
DIM
 62
     0
 10
16.259617920404072
 20
19.139016250844229
 30
0.0
 40
1.3521302335877581
 50
239.39955304916401
 51
254.69977652458189
  0
ARC
  5
38A3
  8
DIM
 62
     0
 10
16.259617920404072
 20
19.139016250844229
 30
0.0
 40
1.3521302335877581
 50
295.30022347541791
 51
310.60044695083582
  0
SOLID
  5
38A4
  8
DIM
 62
     0
 10
15.91080950109493
 20
17.894276364211208
 30
0.0
 11
15.89483470853172
 21
17.775344425680959
 31
0.0
 12
16.259617920404072
 22
17.786886017256471
 32
0.0
 13
16.259617920404072
 23
17.786886017256471
 33
0.0
  0
SOLID
  5
38A5
  8
DIM
 62
     0
 10
16.855658382999991
 20
17.859405604844259
 30
0.0
 11
16.819273969038811
 21
17.973756706372409
 31
0.0
 12
16.49441287143495
 22
17.807427913724801
 32
0.0
 13
16.49441287143495
 23
17.807427913724801
 33
0.0
  0
TEXT
  5
38A6
  8
OBJECT
 62
     0
 10
14.681856346747679
 20
17.853583528014909
 30
0.0
 40
0.25
  1
10°
 41
0.75
  0
POINT
  5
38A7
  8
DEFPOINTS
 62
     0
 10
16.416590659498102
 20
17.796028638182289
 30
0.0
  0
POINT
  5
38A8
  8
DEFPOINTS
 62
     0
 10
16.259617920404072
 20
19.014016250844222
 30
0.0
  0
POINT
  5
38A9
  8
DEFPOINTS
 62
     0
 10
16.250899634060652
 20
19.188460109681881
 30
0.0
  0
POINT
  5
38AA
  8
DEFPOINTS
 62
     0
 10
15.235559839717309
 20
24.94673822607561
 30
0.0
  0
POINT
  5
38AB
  8
DEFPOINTS
 62
     0
 10
16.259617920404072
 20
18.153783671955349
 30
0.0
  0
ENDBLK
  5
30BF
  8
0
  0
BLOCK
  8
0
  2
*D18
 70
     1
 10
0.0
 20
0.0
 30
0.0
  3
*D18
  1

  0
LINE
  5
37FE
  8
DIM
 62
     0
 10
10.237442141496301
 20
15.732532391307471
 30
0.0
 11
10.065969157531899
 21
15.732532391307471
 31
0.0
  0
LINE
  5
37FF
  8
DIM
 62
     0
 10
10.237442141496301
 20
8.0825323913074705
 30
0.0
 11
10.065969157531899
 21
8.0825323913074705
 31
0.0
  0
LINE
  5
3800
  8
DIM
 62
     0
 10
10.251969157531899
 20
15.37253239130747
 30
0.0
 11
10.251969157531899
 21
12.782829328040471
 31
0.0
  0
LINE
  5
3801
  8
DIM
 62
     0
 10
10.251969157531899
 20
8.4425323913074681
 30
0.0
 11
10.251969157531899
 21
12.17282932804047
 31
0.0
  0
SOLID
  5
3802
  8
DIM
 62
     0
 10
10.191969157531901
 20
15.37253239130747
 30
0.0
 11
10.3119691575319
 21
15.37253239130747
 31
0.0
 12
10.251969157531899
 22
15.732532391307471
 32
0.0
 13
10.251969157531899
 23
15.732532391307471
 33
0.0
  0
SOLID
  5
3803
  8
DIM
 62
     0
 10
10.191969157531901
 20
8.4425323913074681
 30
0.0
 11
10.3119691575319
 21
8.4425323913074681
 31
0.0
 12
10.251969157531899
 22
8.0825323913074705
 32
0.0
 13
10.251969157531899
 23
8.0825323913074705
 33
0.0
  0
TEXT
  5
3804
  8
OBJECT
 62
     0
 10
9.7988441575319012
 20
12.352829328040469
 30
0.0
 40
0.25
  1
*7.650
 41
0.75
  0
POINT
  5
3805
  8
DEFPOINTS
 62
     0
 10
10.362442141496301
 20
15.732532391307471
 30
0.0
  0
POINT
  5
3806
  8
DEFPOINTS
 62
     0
 10
10.362442141496301
 20
8.0825323913074705
 30
0.0
  0
POINT
  5
3807
  8
DEFPOINTS
 62
     0
 10
10.251969157531899
 20
8.0825323913074705
 30
0.0
  0
ENDBLK
  5
3378
  8
0
  0
BLOCK
  8
0
  2
*D19
 70
     1
 10
0.0
 20
0.0
 30
0.0
  3
*D19
  1

  0
LINE
  5
37C2
  8
DIM
 62
     0
 10
4.0326569284764178
 20
13.460782158868721
 30
0.0
 11
4.0326569284764178
 21
13.307798739631581
 31
0.0
  0
LINE
  5
37C3
  8
DIM
 62
     0
 10
12.15765692847641
 20
13.460782158868721
 30
0.0
 11
12.15765692847641
 21
13.307798739631581
 31
0.0
  0
LINE
  5
37C4
  8
DIM
 62
     0
 10
4.3926569284764181
 20
13.493798739631581
 30
0.0
 11
8.5639753537300827
 21
13.493798739631581
 31
0.0
  0
LINE
  5
37C5
  8
DIM
 62
     0
 10
11.79765692847641
 20
13.493798739631581
 30
0.0
 11
9.7989753537300821
 21
13.493798739631581
 31
0.0
  0
SOLID
  5
37C6
  8
DIM
 62
     0
 10
4.3926569284764181
 20
13.55379873963158
 30
0.0
 11
4.3926569284764181
 21
13.43379873963158
 31
0.0
 12
4.0326569284764178
 22
13.493798739631581
 32
0.0
 13
4.0326569284764178
 23
13.493798739631581
 33
0.0
  0
SOLID
  5
37C7
  8
DIM
 62
     0
 10
11.79765692847641
 20
13.55379873963158
 30
0.0
 11
11.79765692847641
 21
13.43379873963158
 31
0.0
 12
12.15765692847641
 22
13.493798739631581
 32
0.0
 13
12.15765692847641
 23
13.493798739631581
 33
0.0
  0
TEXT
  5
37C8
  8
OBJECT
 62
     0
 10
8.7439753537300824
 20
13.368798739631581
 30
0.0
 40
0.25
  1
*8.125
 41
0.75
  0
POINT
  5
37C9
  8
DEFPOINTS
 62
     0
 10
4.0326569284764178
 20
13.585782158868721
 30
0.0
  0
POINT
  5
37CA
  8
DEFPOINTS
 62
     0
 10
12.15765692847641
 20
13.58578215886871
 30
0.0
  0
POINT
  5
37CB
  8
DEFPOINTS
 62
     0
 10
12.15765692847641
 20
13.493798739631581
 30
0.0
  0
ENDBLK
  5
3386
  8
0
  0
BLOCK
  8
0
  2
*D20
 70
     1
 10
0.0
 20
0.0
 30
0.0
  3
*D20
  1

  0
LINE
  5
384E
  8
DIM
 62
     0
 10
16.84424814368527
 20
10.28802340429311
 30
0.0
 11
16.84424814368527
 21
9.7914378448698969
 31
0.0
  0
LINE
  5
384F
  8
DIM
 62
     0
 10
17.044248143685259
 20
9.8920198124856569
 30
0.0
 11
17.044248143685259
 21
9.7914378448698969
 31
0.0
  0
LINE
  5
3850
  8
DIM
 62
     0
 10
16.484248143685271
 20
9.9774378448698968
 30
0.0
 11
16.124248143685271
 21
9.9774378448698968
 31
0.0
  0
LINE
  5
3851
  8
DIM
 62
     0
 10
17.404248143685269
 20
9.9774378448698968
 30
0.0
 11
17.764248143685261
 21
9.9774378448698968
 31
0.0
  0
SOLID
  5
3852
  8
DIM
 62
     0
 10
16.484248143685271
 20
10.03743784486989
 30
0.0
 11
16.484248143685271
 21
9.9174378448698963
 31
0.0
 12
16.84424814368527
 22
9.9774378448698968
 32
0.0
 13
16.84424814368527
 23
9.9774378448698968
 33
0.0
  0
SOLID
  5
3853
  8
DIM
 62
     0
 10
17.404248143685269
 20
10.03743784486989
 30
0.0
 11
17.404248143685269
 21
9.9174378448698963
 31
0.0
 12
17.044248143685259
 22
9.9774378448698968
 32
0.0
 13
17.044248143685259
 23
9.9774378448698968
 33
0.0
  0
TEXT
  5
3854
  8
OBJECT
 62
     0
 10
17.944248143685261
 20
9.8524378448698968
 30
0.0
 40
0.25
  1
0.200
 41
0.75
  0
POINT
  5
3855
  8
DEFPOINTS
 62
     0
 10
16.84424814368527
 20
10.41302340429311
 30
0.0
  0
POINT
  5
3856
  8
DEFPOINTS
 62
     0
 10
17.044248143685259
 20
10.01701981248565
 30
0.0
  0
POINT
  5
3857
  8
DEFPOINTS
 62
     0
 10
17.044248143685259
 20
9.9774378448698968
 30
0.0
  0
ENDBLK
  5
34F8
  8
0
  0
BLOCK
  8
0
  2
*D21
 70
     1
 10
0.0
 20
0.0
 30
0.0
  3
*D21
  1

  0
LINE
  5
3858
  8
DIM
 62
     0
 10
17.044248143685259
 20
8.8460969211239444
 30
0.0
 11
17.044248143685259
 21
8.7777760022050657
 31
0.0
  0
LINE
  5
3859
  8
DIM
 62
     0
 10
16.298248143685271
 20
8.8460969211239444
 30
0.0
 11
16.298248143685271
 21
8.7777760022050657
 31
0.0
  0
LINE
  5
385A
  8
DIM
 62
     0
 10
17.404248143685269
 20
8.9637760022050657
 30
0.0
 11
17.764248143685261
 21
8.9637760022050657
 31
0.0
  0
LINE
  5
385B
  8
DIM
 62
     0
 10
15.93824814368527
 20
8.9637760022050657
 30
0.0
 11
15.57824814368527
 21
8.9637760022050657
 31
0.0
  0
SOLID
  5
385C
  8
DIM
 62
     0
 10
17.404248143685269
 20
9.0237760022050661
 30
0.0
 11
17.404248143685269
 21
8.9037760022050652
 31
0.0
 12
17.044248143685259
 22
8.9637760022050657
 32
0.0
 13
17.044248143685259
 23
8.9637760022050657
 33
0.0
  0
SOLID
  5
385D
  8
DIM
 62
     0
 10
15.93824814368527
 20
9.0237760022050661
 30
0.0
 11
15.93824814368527
 21
8.9037760022050652
 31
0.0
 12
16.298248143685271
 22
8.9637760022050657
 32
0.0
 13
16.298248143685271
 23
8.9637760022050657
 33
0.0
  0
TEXT
  5
385E
  8
OBJECT
 62
     0
 10
14.679498143685271
 20
8.8387760022050657
 30
0.0
 40
0.25
  1
0.746
 41
0.75
  0
POINT
  5
385F
  8
DEFPOINTS
 62
     0
 10
17.044248143685259
 20
8.9710969211239444
 30
0.0
  0
POINT
  5
3860
  8
DEFPOINTS
 62
     0
 10
16.298248143685271
 20
8.9710969211239444
 30
0.0
  0
POINT
  5
3861
  8
DEFPOINTS
 62
     0
 10
16.298248143685271
 20
8.9637760022050657
 30
0.0
  0
ENDBLK
  5
3506
  8
0
  0
BLOCK
  8
0
  2
*D22
 70
     1
 10
0.0
 20
0.0
 30
0.0
  3
*D22
  1

  0
LINE
  5
37B8
  8
DIM
 62
     0
 10
4.2761569284764169
 20
19.85337438243857
 30
0.0
 11
4.2761569284764169
 21
18.413392518840698
 31
0.0
  0
LINE
  5
37B9
  8
DIM
 62
     0
 10
11.914156928476411
 20
19.85337438243856
 30
0.0
 11
11.914156928476411
 21
18.413392518840698
 31
0.0
  0
LINE
  5
37BA
  8
DIM
 62
     0
 10
4.6361569284764181
 20
18.599392518840698
 30
0.0
 11
7.5401569284764172
 21
18.599392518840698
 31
0.0
  0
LINE
  5
37BB
  8
DIM
 62
     0
 10
11.554156928476409
 20
18.599392518840698
 30
0.0
 11
8.6501569284764166
 21
18.599392518840698
 31
0.0
  0
SOLID
  5
37BC
  8
DIM
 62
     0
 10
4.6361569284764181
 20
18.659392518840701
 30
0.0
 11
4.6361569284764181
 21
18.53939251884071
 31
0.0
 12
4.2761569284764169
 22
18.599392518840698
 32
0.0
 13
4.2761569284764169
 23
18.599392518840698
 33
0.0
  0
SOLID
  5
37BD
  8
DIM
 62
     0
 10
11.554156928476409
 20
18.659392518840701
 30
0.0
 11
11.554156928476409
 21
18.53939251884071
 31
0.0
 12
11.914156928476411
 22
18.599392518840698
 32
0.0
 13
11.914156928476411
 23
18.599392518840698
 33
0.0
  0
TEXT
  5
37BE
  8
OBJECT
 62
     0
 10
7.720156928476416
 20
18.474392518840698
 30
0.0
 40
0.25
  1
7.638
 41
0.75
  0
POINT
  5
37BF
  8
DEFPOINTS
 62
     0
 10
4.2761569284764169
 20
19.97837438243857
 30
0.0
  0
POINT
  5
37C0
  8
DEFPOINTS
 62
     0
 10
11.914156928476411
 20
19.97837438243856
 30
0.0
  0
POINT
  5
37C1
  8
DEFPOINTS
 62
     0
 10
11.914156928476411
 20
18.599392518840698
 30
0.0
  0
ENDBLK
  5
3605
  8
0
  0
BLOCK
  8
0
  2
*D23
 70
     1
 10
0.0
 20
0.0
 30
0.0
  3
*D23
  1

  0
LINE
  5
3826
  8
DIM
 62
     0
 10
11.712156928476411
 20
24.471378007398659
 30
0.0
 11
13.497580897531421
 21
24.471378007398659
 31
0.0
  0
LINE
  5
3827
  8
DIM
 62
     0
 10
11.712156928476411
 20
19.655357439450562
 30
0.0
 11
13.497580897531421
 21
19.655357439450562
 31
0.0
  0
LINE
  5
3828
  8
DIM
 62
     0
 10
13.311580897531419
 20
24.11137800739866
 30
0.0
 11
13.311580897531419
 21
22.61388789921563
 31
0.0
  0
LINE
  5
3829
  8
DIM
 62
     0
 10
13.311580897531419
 20
20.015357439450561
 30
0.0
 11
13.311580897531419
 21
22.003887899215631
 31
0.0
  0
SOLID
  5
382A
  8
DIM
 62
     0
 10
13.25158089753142
 20
24.11137800739866
 30
0.0
 11
13.37158089753142
 21
24.11137800739866
 31
0.0
 12
13.311580897531419
 22
24.471378007398659
 32
0.0
 13
13.311580897531419
 23
24.471378007398659
 33
0.0
  0
SOLID
  5
382B
  8
DIM
 62
     0
 10
13.25158089753142
 20
20.015357439450561
 30
0.0
 11
13.37158089753142
 21
20.015357439450561
 31
0.0
 12
13.311580897531419
 22
19.655357439450562
 32
0.0
 13
13.311580897531419
 23
19.655357439450562
 33
0.0
  0
TEXT
  5
382C
  8
OBJECT
 62
     0
 10
12.952205897531419
 20
22.18388789921563
 30
0.0
 40
0.25
  1
4.890
 41
0.75
  0
POINT
  5
382D
  8
DEFPOINTS
 62
     0
 10
11.587156928476411
 20
24.471378007398659
 30
0.0
  0
POINT
  5
382E
  8
DEFPOINTS
 62
     0
 10
11.587156928476411
 20
19.655357439450562
 30
0.0
  0
POINT
  5
382F
  8
DEFPOINTS
 62
     0
 10
13.311580897531419
 20
19.655357439450562
 30
0.0
  0
ENDBLK
  5
3661
  8
0
  0
BLOCK
  8
0
  2
*D24
 70
     1
 10
0.0
 20
0.0
 30
0.0
  3
*D24
  1

  0
LINE
  5
386C
  8
DIM
 62
     0
 10
16.1864599520684
 20
20.855397835816898
 30
0.0
 11
16.140684590713761
 21
21.115002810453859
 31
0.0
  0
LINE
  5
386D
  8
DIM
 62
     0
 10
17.908325257342941
 20
21.159009146282621
 30
0.0
 11
17.862549895988298
 21
21.418614120919582
 31
0.0
  0
LINE
  5
386E
  8
DIM
 62
     0
 10
15.818452360675421
 20
20.8693152244335
 30
0.0
 11
15.463921569591029
 21
20.806801880473401
 31
0.0
  0
LINE
  5
386F
  8
DIM
 62
     0
 10
18.24937924811875
 20
21.297953222819409
 30
0.0
 11
18.60391003920315
 21
21.360466566779511
 31
0.0
  0
SOLID
  5
3870
  8
DIM
 62
     0
 10
15.808033470015401
 20
20.928403689614228
 30
0.0
 11
15.828871251335441
 21
20.810226759252771
 31
0.0
 12
16.172983151759819
 22
20.931828568393598
 32
0.0
 13
16.172983151759819
 23
20.931828568393598
 33
0.0
  0
SOLID
  5
3871
  8
DIM
 62
     0
 10
18.23896035745873
 20
21.357041688000141
 30
0.0
 11
18.25979813877877
 21
21.23886475763868
 31
0.0
 12
17.89484845703436
 22
21.23543987885931
 32
0.0
 13
17.89484845703436
 23
21.23543987885931
 33
0.0
  0
TEXT
  5
3872
  8
OBJECT
 62
     0
 10
16.574935261269619
 20
20.93831596987139
 30
0.0
 40
0.25
  1
1.748
 41
0.75
  0
POINT
  5
3873
  8
DEFPOINTS
 62
     0
 10
16.208165974276771
 20
20.732296866690369
 30
0.0
  0
POINT
  5
3874
  8
DEFPOINTS
 62
     0
 10
17.930031279551311
 20
21.035908177156092
 30
0.0
  0
POINT
  5
3875
  8
DEFPOINTS
 62
     0
 10
17.89484845703436
 20
21.23543987885931
 30
0.0
  0
ENDBLK
  5
36AF
  8
0
  0
BLOCK
  8
0
  2
*D25
 70
     1
 10
0.0
 20
0.0
 30
0.0
  3
*D25
  1

  0
LINE
  5
3880
  8
DIM
 62
     0
 10
15.523852227144999
 20
24.61323297971321
 30
0.0
 11
15.418888839906529
 21
25.208509929484279
 31
0.0
  0
LINE
  5
3881
  8
DIM
 62
     0
 10
18.094911898195701
 20
25.06658016873088
 30
0.0
 11
17.98994851095723
 21
25.661857118501949
 31
0.0
  0
LINE
  5
3882
  8
DIM
 62
     0
 10
15.80571819203697
 20
25.087849031384099
 30
0.0
 11
16.244217236477919
 21
25.16516824393392
 31
0.0
  0
LINE
  5
3883
  8
DIM
 62
     0
 10
17.667716280918881
 20
25.416169532481579
 30
0.0
 11
17.229217236477918
 21
25.338850319931758
 31
0.0
  0
SOLID
  5
3884
  8
DIM
 62
     0
 10
15.79529930137695
 20
25.146937496564831
 30
0.0
 11
15.816137082696979
 21
25.028760566203371
 31
0.0
 12
15.45118740095257
 22
25.025335687424011
 32
0.0
 13
15.45118740095257
 23
25.025335687424011
 33
0.0
  0
SOLID
  5
3885
  8
DIM
 62
     0
 10
17.657297390258869
 20
25.475257997662322
 30
0.0
 11
17.678135171578901
 21
25.35708106730085
 31
0.0
 12
18.022247072003271
 22
25.478682876441681
 32
0.0
 13
18.022247072003271
 23
25.478682876441681
 33
0.0
  0
TEXT
  5
3886
  8
OBJECT
 62
     0
 10
16.424217236477919
 20
25.127009281932839
 30
0.0
 40
0.25
  1
2.611
 41
0.75
  0
POINT
  5
3887
  8
DEFPOINTS
 62
     0
 10
15.54555824935337
 20
24.490132010586692
 30
0.0
  0
POINT
  5
3888
  8
DEFPOINTS
 62
     0
 10
18.116617920404071
 20
24.943479199604361
 30
0.0
  0
POINT
  5
3889
  8
DEFPOINTS
 62
     0
 10
18.022247072003271
 20
25.478682876441681
 30
0.0
  0
ENDBLK
  5
36BD
  8
0
  0
BLOCK
  8
0
  2
*D26
 70
     1
 10
0.0
 20
0.0
 30
0.0
  3
*D26
  1

  0
LINE
  5
3FFD
  8
DIM
 62
     0
 10
17.916617920404072
 20
26.762824567371968
 30
0.0
 11
17.916617920404072
 21
26.229256021185339
 31
0.0
  0
LINE
  5
3FFE
  8
DIM
 62
     0
 10
15.352617920404059
 20
26.48243783007657
 30
0.0
 11
15.352617920404059
 21
26.229256021185339
 31
0.0
  0
LINE
  5
3FFF
  8
DIM
 62
     0
 10
17.556617920404069
 20
26.415256021185339
 30
0.0
 11
17.189617920404061
 21
26.415256021185339
 31
0.0
  0
LINE
  5
4000
  8
DIM
 62
     0
 10
15.71261792040406
 20
26.415256021185339
 30
0.0
 11
16.079617920404068
 21
26.415256021185339
 31
0.0
  0
SOLID
  5
4001
  8
DIM
 62
     0
 10
17.556617920404069
 20
26.475256021185341
 30
0.0
 11
17.556617920404069
 21
26.35525602118534
 31
0.0
 12
17.916617920404072
 22
26.415256021185339
 32
0.0
 13
17.916617920404072
 23
26.415256021185339
 33
0.0
  0
SOLID
  5
4002
  8
DIM
 62
     0
 10
15.71261792040406
 20
26.475256021185341
 30
0.0
 11
15.71261792040406
 21
26.35525602118534
 31
0.0
 12
15.352617920404059
 22
26.415256021185339
 32
0.0
 13
15.352617920404059
 23
26.415256021185339
 33
0.0
  0
TEXT
  5
4003
  8
OBJECT
 62
     0
 10
16.259617920404061
 20
26.290256021185339
 30
0.0
 40
0.25
  1
2.564
 41
0.75
  0
POINT
  5
4004
  8
DEFPOINTS
 62
     0
 10
17.916617920404072
 20
26.887824567371979
 30
0.0
  0
POINT
  5
4005
  8
DEFPOINTS
 62
     0
 10
15.352617920404059
 20
26.60743783007657
 30
0.0
  0
POINT
  5
4006
  8
DEFPOINTS
 62
     0
 10
15.352617920404059
 20
26.415256021185339
 30
0.0
  0
ENDBLK
  5
3FF1
  8
0
  0
BLOCK
  8
0
  2
*D27
 70
     1
 10
0.0
 20
0.0
 30
0.0
  3
*D27
  1

  0
LINE
  5
4026
  8
DIM
 62
     0
 10
17.916617920404072
 20
22.221842541400679
 30
0.0
 11
17.916617920404072
 21
22.697646697802149
 31
0.0
  0
LINE
  5
4027
  8
DIM
 62
     0
 10
16.43330251057159
 20
19.58048412146988
 30
0.0
 11
16.43330251057159
 21
22.697646697802149
 31
0.0
  0
LINE
  5
4028
  8
DIM
 62
     0
 10
18.276617920404071
 20
22.511646697802149
 30
0.0
 11
18.636617920404071
 21
22.511646697802149
 31
0.0
  0
LINE
  5
4029
  8
DIM
 62
     0
 10
16.07330251057159
 20
22.511646697802149
 30
0.0
 11
15.394604428576571
 21
22.511646697802149
 31
0.0
  0
SOLID
  5
402A
  8
DIM
 62
     0
 10
18.276617920404071
 20
22.571646697802141
 30
0.0
 11
18.276617920404071
 21
22.45164669780215
 31
0.0
 12
17.916617920404072
 22
22.511646697802149
 32
0.0
 13
17.916617920404072
 23
22.511646697802149
 33
0.0
  0
SOLID
  5
402B
  8
DIM
 62
     0
 10
16.07330251057159
 20
22.571646697802141
 30
0.0
 11
16.07330251057159
 21
22.45164669780215
 31
0.0
 12
16.43330251057159
 22
22.511646697802149
 32
0.0
 13
16.43330251057159
 23
22.511646697802149
 33
0.0
  0
TEXT
  5
402C
  8
OBJECT
 62
     0
 10
14.52710442857656
 20
22.386646697802139
 30
0.0
 40
0.25
  1
1.483
 41
0.75
  0
POINT
  5
402D
  8
DEFPOINTS
 62
     0
 10
17.916617920404072
 20
22.09684254140069
 30
0.0
  0
POINT
  5
402E
  8
DEFPOINTS
 62
     0
 10
16.43330251057159
 20
19.45548412146988
 30
0.0
  0
POINT
  5
402F
  8
DEFPOINTS
 62
     0
 10
16.43330251057159
 20
22.511646697802149
 30
0.0
  0
ENDBLK
  5
401A
  8
0
  0
ENDSEC
  0
SECTION
  2
ENTITIES
  0
LINE
  5
1E79
  8
OBJECT
 10
3.6076569284764162
 20
7.8455323913074722
 30
0.0
 11
3.6076569284764162
 21
15.969532391307469
 31
0.0
  0
LINE
  5
1E7A
  8
OBJECT
 10
3.795656928476415
 20
16.15753239130747
 30
0.0
 11
4.2461569284764131
 21
16.15753239130747
 31
0.0
  0
LINE
  5
1E7B
  8
OBJECT
 10
12.58265692847641
 20
15.969532391307469
 30
0.0
 11
12.58265692847641
 21
7.8455323913074722
 31
0.0
  0
LINE
  5
1E7C
  8
OBJECT
 10
12.394656928476421
 20
7.6575323913074733
 30
0.0
 11
3.795656928476415
 21
7.6575323913074733
 31
0.0
  0
LINE
  5
1E7D
  8
OBJECT
 10
12.58265692847641
 20
2.846876482959547
 30
0.0
 11
11.850156928476411
 21
2.846876482959547
 31
0.0
  0
LINE
  5
1E7F
  8
OBJECT
 10
12.124971145273969
 20
2.0768764829595479
 30
0.0
 11
4.0653427116788521
 21
2.0768764829595479
 31
0.0
  0
LINE
  5
1E80
  8
OBJECT
 10
12.571324755007661
 20
2.5028764829595498
 30
0.0
 11
3.6189891019451599
 21
2.5028764829595498
 31
0.0
  0
LINE
  5
204F
  8
OBJECT
 10
3.6076569284764162
 20
2.846876482959547
 30
0.0
 11
3.6132242945576389
 21
2.527922293781955
 31
0.0
  0
LINE
  5
2050
  8
OBJECT
 10
3.631374231223766
 20
2.4851637225475001
 30
0.0
 11
4.0215020912452877
 21
2.095035862525982
 31
0.0
  0
LINE
  5
2055
  8
OBJECT
 10
12.58265692847641
 20
2.846876482959547
 30
0.0
 11
12.57708956239518
 21
2.527922293781955
 31
0.0
  0
LINE
  5
2056
  8
OBJECT
 10
12.55893962572906
 20
2.4851637225475001
 30
0.0
 11
12.16881176570754
 21
2.095035862525982
 31
0.0
  0
ARC
  5
22AD
  8
OBJECT
 10
3.795656928476415
 20
7.8455323913074722
 30
0.0
 40
0.113
 50
180.0
 51
270.0
  0
ARC
  5
22AE
  8
OBJECT
 10
3.795656928476415
 20
7.8455323913074722
 30
0.0
 40
0.188
 50
180.0
 51
270.0
  0
LINE
  5
22AF
  8
OBJECT
 10
3.7326569284764162
 20
7.7825323913074733
 30
0.0
 11
3.7326569284764162
 21
16.03253239130747
 31
0.0
  0
LINE
  5
22B0
  8
OBJECT
 10
12.394656928476421
 20
7.7325323913074717
 30
0.0
 11
3.795656928476415
 21
7.7325323913074717
 31
0.0
  0
LINE
  5
22B1
  8
OBJECT
 10
12.45765692847641
 20
7.7825323913074733
 30
0.0
 11
3.7326569284764162
 21
7.7825323913074733
 31
0.0
  0
LINE
  5
22B2
  8
OBJECT
 10
3.682656928476415
 20
7.8455323913074722
 30
0.0
 11
3.682656928476415
 21
15.969532391307469
 31
0.0
  0
CIRCLE
  5
22B3
  8
OBJECT
 10
4.0081569284764127
 20
8.0505323913074704
 30
0.0
 40
0.0625
  0
LINE
  5
22B4
  8
OBJECT
 10
3.8425331077258948
 20
8.0255323913074719
 30
0.0
 11
3.7326569284764162
 21
8.0255323913074719
 31
0.0
  0
LINE
  5
22B5
  8
OBJECT
 10
3.8425331077258948
 20
8.0755323913074726
 30
0.0
 11
3.7326569284764162
 21
8.075532391307469
 31
0.0
  0
CIRCLE
  5
22B6
  8
OBJECT
 10
4.0081569284764127
 20
8.0505323913074704
 30
0.0
 40
0.1675
  0
CIRCLE
  5
22B7
  8
OBJECT
 10
4.0081569284764127
 20
15.764532391307471
 30
0.0
 40
0.1675
  0
CIRCLE
  5
22B8
  8
OBJECT
 10
4.0081569284764127
 20
15.764532391307471
 30
0.0
 40
0.0625
  0
ARC
  5
22B9
  8
OBJECT
 10
3.795656928476415
 20
15.969532391307469
 30
0.0
 40
0.188
 50
90.000000000000028
 51
180.0
  0
ARC
  5
22BA
  8
OBJECT
 10
3.795656928476415
 20
15.969532391307469
 30
0.0
 40
0.113
 50
90.000000000000028
 51
180.0
  0
LINE
  5
22BB
  8
OBJECT
 10
3.8425331077258948
 20
15.739532391307471
 30
0.0
 11
3.7326569284764162
 21
15.739532391307471
 31
0.0
  0
LINE
  5
22BC
  8
OBJECT
 10
3.8425331077258948
 20
15.789532391307469
 30
0.0
 11
3.7326569284764162
 21
15.789532391307469
 31
0.0
  0
CIRCLE
  5
22BD
  8
OBJECT
 10
12.18215692847641
 20
8.0505323913074704
 30
0.0
 40
0.1675
  0
CIRCLE
  5
22BE
  8
OBJECT
 10
12.18215692847641
 20
8.0505323913074704
 30
0.0
 40
0.0625
  0
ARC
  5
22BF
  8
OBJECT
 10
12.394656928476421
 20
7.8455323913074722
 30
0.0
 40
0.188
 50
270.0
 51
0.000000000000007
  0
ARC
  5
22C0
  8
OBJECT
 10
12.394656928476421
 20
7.8455323913074722
 30
0.0
 40
0.113
 50
270.0
 51
0.000000000000007
  0
LINE
  5
22C1
  8
OBJECT
 10
12.34778074922694
 20
8.0755323913074726
 30
0.0
 11
12.45765692847641
 21
8.075532391307469
 31
0.0
  0
LINE
  5
22C2
  8
OBJECT
 10
12.34778074922694
 20
8.0255323913074719
 30
0.0
 11
12.45765692847641
 21
8.0255323913074719
 31
0.0
  0
CIRCLE
  5
22C3
  8
OBJECT
 10
12.18215692847641
 20
15.764532391307471
 30
0.0
 40
0.0625
  0
CIRCLE
  5
22C4
  8
OBJECT
 10
12.18215692847641
 20
15.764532391307471
 30
0.0
 40
0.1675
  0
LINE
  5
22C5
  8
OBJECT
 10
12.34778074922694
 20
15.739532391307471
 30
0.0
 11
12.45765692847641
 21
15.739532391307471
 31
0.0
  0
ARC
  5
22C6
  8
OBJECT
 10
12.394656928476421
 20
15.969532391307469
 30
0.0
 40
0.113
 50
0.000000000000007
 51
89.999999999999986
  0
ARC
  5
22C7
  8
OBJECT
 10
12.394656928476421
 20
15.969532391307469
 30
0.0
 40
0.188
 50
0.000000000000007
 51
89.999999999999986
  0
LINE
  5
22C8
  8
OBJECT
 10
12.34778074922694
 20
15.789532391307469
 30
0.0
 11
12.45765692847641
 21
15.789532391307469
 31
0.0
  0
LINE
  5
22CA
  8
OBJECT
 10
12.45765692847641
 20
16.03253239130747
 30
0.0
 11
11.90515692847641
 21
16.03253239130747
 31
0.0
  0
LINE
  5
22CB
  8
OBJECT
 10
12.394656928476421
 20
16.08253239130747
 30
0.0
 11
11.90515692847641
 21
16.08253239130747
 31
0.0
  0
LINE
  5
22CC
  8
OBJECT
 10
12.507656928476409
 20
7.8455323913074722
 30
0.0
 11
12.507656928476409
 21
15.969532391307469
 31
0.0
  0
LINE
  5
22CD
  8
OBJECT
 10
12.45765692847641
 20
7.7825323913074733
 30
0.0
 11
12.45765692847641
 21
16.03253239130747
 31
0.0
  0
ARC
  5
22E4
  8
OBJECT
 10
3.868526777213432
 20
1.932083868049993
 30
0.0
 40
0.3016521478289426
 50
28.685311934345719
 51
87.220059914346095
  0
ARC
  5
22E6
  8
OBJECT
 10
12.321787079739391
 20
1.932083868049993
 30
0.0
 40
0.3016521478289426
 50
92.779940085653905
 51
151.3146880656542
  0
LINE
  5
22E7
  8
OBJECT
 10
16.298248143685271
 20
16.08253239130747
 30
0.0
 11
16.298248143685271
 21
7.7325323913074717
 31
0.0
  0
LINE
  5
22E9
  8
OBJECT
 10
17.162248143685261
 20
15.699846608105039
 30
0.0
 11
17.162248143685261
 21
8.1152181745099128
 31
0.0
  0
LINE
  5
22EA
  8
OBJECT
 10
16.392248143685269
 20
16.15753239130747
 30
0.0
 11
16.392248143685269
 21
7.6575323913074733
 31
0.0
  0
LINE
  5
22EB
  8
OBJECT
 10
16.392248143685269
 20
7.6575323913074733
 30
0.0
 11
16.711202332862861
 21
7.6630997573886921
 31
0.0
  0
ARC
  5
22EC
  8
OBJECT
 10
17.306796191631729
 20
7.9019112656985584
 30
0.0
 40
0.309455422548424
 50
117.8465126832098
 51
175.62228220692779
  0
LINE
  5
22ED
  8
OBJECT
 10
16.753960904097319
 20
7.6812496940548272
 30
0.0
 11
17.14408876411883
 21
8.0713775540763457
 31
0.0
  0
LINE
  5
22EE
  8
OBJECT
 10
16.392248143685269
 20
16.15753239130747
 30
0.0
 11
16.711202332862861
 21
16.151965025226239
 31
0.0
  0
LINE
  5
22EF
  8
OBJECT
 10
16.753960904097308
 20
16.133815088560109
 30
0.0
 11
17.14408876411883
 21
15.743687228538599
 31
0.0
  0
LINE
  5
2317
  8
OBJECT
 10
16.298248143685271
 20
7.7325323913074717
 30
0.0
 11
16.392248143685269
 21
7.7325323913074717
 31
0.0
  0
LINE
  5
2318
  8
OBJECT
 10
16.298248143685271
 20
16.08253239130747
 30
0.0
 11
16.392248143685269
 21
16.08253239130747
 31
0.0
  0
LINE
  5
2319
  8
CENTER
 10
3.6076569284764162
 20
11.90753239130747
 30
0.0
 11
12.58265692847641
 21
11.907532391307461
 31
0.0
  0
LINE
  5
231E
  8
OBJECT
 10
11.94415692847641
 20
16.03253239130747
 30
0.0
 11
11.94415692847641
 21
15.99453239130747
 31
0.0
  0
LINE
  5
231F
  8
OBJECT
 10
11.94415692847641
 20
16.213532391307471
 30
0.0
 11
11.94415692847641
 21
16.15753239130747
 31
0.0
  0
LINE
  5
2320
  8
OBJECT
 10
11.83215692847641
 20
16.053532391307471
 30
0.0
 11
11.83215692847641
 21
15.99453239130747
 31
0.0
  0
LINE
  5
2321
  8
OBJECT
 10
11.90515692847641
 20
16.15753239130747
 30
0.0
 11
11.90515692847641
 21
16.03253239130747
 31
0.0
  0
LINE
  5
2322
  8
OBJECT
 10
11.850156928476411
 20
16.213532391307471
 30
0.0
 11
11.850156928476411
 21
16.15753239130747
 31
0.0
  0
LINE
  5
2323
  8
OBJECT
 10
4.2461569284764131
 20
16.213532391307471
 30
0.0
 11
11.94415692847641
 21
16.213532391307471
 31
0.0
  0
LINE
  5
2324
  8
OBJECT
 10
4.2461569284764131
 20
15.99453239130747
 30
0.0
 11
11.94415692847641
 21
15.99453239130747
 31
0.0
  0
LINE
  5
2325
  8
OBJECT
 10
4.2851569284764137
 20
16.053532391307471
 30
0.0
 11
11.90515692847641
 21
16.053532391307471
 31
0.0
  0
LINE
  5
2326
  8
OBJECT
 10
4.3401569284764143
 20
16.213532391307471
 30
0.0
 11
4.3401569284764143
 21
16.15753239130747
 31
0.0
  0
LINE
  5
2327
  8
OBJECT
 10
4.2851569284764137
 20
16.15753239130747
 30
0.0
 11
4.2851569284764137
 21
16.03253239130747
 31
0.0
  0
LINE
  5
2328
  8
OBJECT
 10
4.358156928476415
 20
16.053532391307471
 30
0.0
 11
4.358156928476415
 21
15.99453239130747
 31
0.0
  0
LINE
  5
2329
  8
OBJECT
 10
4.2461569284764131
 20
16.213532391307471
 30
0.0
 11
4.2461569284764131
 21
16.15753239130747
 31
0.0
  0
LINE
  5
232A
  8
OBJECT
 10
4.2461569284764131
 20
16.03253239130747
 30
0.0
 11
4.2461569284764131
 21
15.99453239130747
 31
0.0
  0
LINE
  5
232B
  8
OBJECT
 10
11.94415692847641
 20
16.15753239130747
 30
0.0
 11
12.394656928476421
 21
16.157532391307459
 31
0.0
  0
LINE
  5
232C
  8
OBJECT
 10
4.2851569284764137
 20
16.15753239130747
 30
0.0
 11
11.90515692847641
 21
16.15753239130747
 31
0.0
  0
LINE
  5
232D
  8
OBJECT
 10
4.2851569284764137
 20
16.08253239130747
 30
0.0
 11
3.795656928476415
 21
16.08253239130747
 31
0.0
  0
LINE
  5
232E
  8
OBJECT
 10
4.2851569284764137
 20
16.03253239130747
 30
0.0
 11
3.7326569284764162
 21
16.03253239130747
 31
0.0
  0
LINE
  5
2332
  8
OBJECT
 10
16.26324814368526
 20
8.2180323913074709
 30
0.0
 11
16.26324814368526
 21
7.8830323913074727
 31
0.0
  0
LINE
  5
2333
  8
HIDDEN
 10
16.26324814368526
 20
7.8830323913074727
 30
0.0
 11
16.788866400989939
 21
7.8830323913074727
 31
0.0
  0
LINE
  5
2334
  8
HIDDEN
 10
16.26324814368526
 20
8.2180323913074709
 30
0.0
 11
17.044248143685259
 21
8.218032391307549
 31
0.0
  0
LINE
  5
2335
  8
OBJECT
 10
16.392248143685269
 20
16.232888648707661
 30
0.0
 11
16.694248143685272
 21
16.22761721909934
 31
0.0
  0
LINE
  5
2336
  8
OBJECT
 10
16.392248143685269
 20
16.15753239130747
 30
0.0
 11
16.392248143685269
 21
16.232888648707661
 31
0.0
  0
LINE
  5
2337
  8
OBJECT
 10
16.694248143685272
 20
16.22761721909934
 30
0.0
 11
16.694248143685272
 21
16.152260961699142
 31
0.0
  0
CIRCLE
  5
233F
  8
OBJECT
 10
4.197656928476416
 20
11.90753239130747
 30
0.0
 40
0.125
  0
CIRCLE
  5
2340
  8
OBJECT
 10
4.197656928476416
 20
11.90753239130747
 30
0.0
 40
0.047
  0
CIRCLE
  5
2341
  8
OBJECT
 10
11.992656928476411
 20
11.90753239130747
 30
0.0
 40
0.125
  0
CIRCLE
  5
2342
  8
OBJECT
 10
11.992656928476411
 20
11.90753239130747
 30
0.0
 40
0.047
  0
CIRCLE
  5
2343
  8
OBJECT
 10
8.0951569284764133
 20
10.53453239130747
 30
0.0
 40
0.125
  0
CIRCLE
  5
2344
  8
OBJECT
 10
8.0951569284764133
 20
10.53453239130747
 30
0.0
 40
0.047
  0
CIRCLE
  5
2347
  8
OBJECT
 10
4.5521569284764141
 20
8.2465323913074702
 30
0.0
 40
0.047
  0
CIRCLE
  5
2348
  8
OBJECT
 10
4.5521569284764141
 20
8.2465323913074702
 30
0.0
 40
0.125
  0
CIRCLE
  5
2349
  8
OBJECT
 10
11.638156928476411
 20
8.2465323913074702
 30
0.0
 40
0.125
  0
CIRCLE
  5
234A
  8
OBJECT
 10
11.638156928476411
 20
8.2465323913074702
 30
0.0
 40
0.047
  0
CIRCLE
  5
234B
  8
OBJECT
 10
4.5521569284764141
 20
15.568532391307469
 30
0.0
 40
0.125
  0
CIRCLE
  5
234C
  8
OBJECT
 10
4.5521569284764141
 20
15.568532391307469
 30
0.0
 40
0.047
  0
CIRCLE
  5
234D
  8
OBJECT
 10
11.638156928476411
 20
15.568532391307469
 30
0.0
 40
0.047
  0
CIRCLE
  5
234E
  8
OBJECT
 10
11.638156928476411
 20
15.568532391307469
 30
0.0
 40
0.125
  0
LINE
  5
234F
  8
CENTER
 10
8.0951569284764169
 20
7.6575323913074733
 30
0.0
 11
8.0951569284764453
 21
16.15753239130748
 31
0.0
  0
ARC
  5
2353
  8
OBJECT
 10
16.710120283663748
 20
7.7250903144883898
 30
0.0
 40
0.062
 50
270.99999999999989
 51
315.0
  0
ARC
  5
2354
  8
OBJECT
 10
17.10024814368527
 20
8.1152181745099128
 30
0.0
 40
0.062
 50
315.0
 51
0.0
  0
ARC
  5
2355
  8
OBJECT
 10
16.710120283663748
 20
16.089974468126549
 30
0.0
 40
0.062
 50
45.000000000000092
 51
88.999999999999787
  0
ARC
  5
2356
  8
OBJECT
 10
17.10024814368527
 20
15.699846608105039
 30
0.0
 40
0.062
 50
0.0
 51
45.000000000000377
  0
ARC
  5
2357
  8
OBJECT
 10
12.124971145273969
 20
2.138876482959545
 30
0.0
 40
0.062
 50
270.0
 51
315.0
  0
ARC
  5
2358
  8
OBJECT
 10
12.51509900529549
 20
2.529004342981068
 30
0.0
 40
0.062
 50
315.00000000000011
 51
359.0
  0
ARC
  5
2359
  8
OBJECT
 10
4.0653427116788521
 20
2.138876482959545
 30
0.0
 40
0.062
 50
224.99999999999989
 51
270.0
  0
ARC
  5
235A
  8
OBJECT
 10
3.6752148516573331
 20
2.529004342981068
 30
0.0
 40
0.062
 50
180.99999999999989
 51
224.99999999999989
  0
LINE
  5
235B
  8
OBJECT
 10
17.808617920404071
 20
27.587001380917581
 30
0.0
 11
17.808617920404071
 21
19.10966572785507
 31
0.0
  0
LINE
  5
235C
  8
OBJECT
 10
18.234617920404059
 20
27.1406477711839
 30
0.0
 11
18.234617920404059
 21
19.556019337588769
 31
0.0
  0
LINE
  5
235E
  8
OBJECT
 10
3.6076569284764162
 20
19.286333554386331
 30
0.0
 11
3.6076569284764162
 21
27.41033355438633
 31
0.0
  0
LINE
  5
235F
  8
OBJECT
 10
12.58265692847641
 20
27.41033355438633
 30
0.0
 11
12.58265692847641
 21
19.286333554386331
 31
0.0
  0
LINE
  5
2360
  8
OBJECT
 10
17.46461792040407
 20
27.598333554386329
 30
0.0
 11
17.46461792040407
 21
19.098333554386329
 31
0.0
  0
LINE
  5
2366
  8
OBJECT
 10
12.394656928476421
 20
19.098333554386329
 30
0.0
 11
3.795656928476415
 21
19.098333554386329
 31
0.0
  0
ARC
  5
236A
  8
OBJECT
 10
3.795656928476415
 20
19.286333554386331
 30
0.0
 40
0.188
 50
180.0
 51
270.0
  0
ARC
  5
2378
  8
OBJECT
 10
12.394656928476421
 20
19.286333554386331
 30
0.0
 40
0.188
 50
270.0
 51
0.000000000000007
  0
LINE
  5
237B
  8
OBJECT
 10
17.82633068081612
 20
19.122050857133679
 30
0.0
 11
18.216458540837628
 21
19.512178717155201
 31
0.0
  0
LINE
  5
237D
  8
OBJECT
 10
17.424617920404071
 20
19.173333554386328
 30
0.0
 11
17.46461792040407
 21
19.173333554386328
 31
0.0
  0
LINE
  5
237F
  8
OBJECT
 10
17.46461792040407
 20
19.098333554386329
 30
0.0
 11
17.783572109581659
 21
19.103900920467549
 31
0.0
  0
ARC
  5
2380
  8
OBJECT
 10
17.78249006038255
 20
19.16589147756725
 30
0.0
 40
0.062
 50
270.99999999999989
 51
315.0
  0
ARC
  5
2383
  8
OBJECT
 10
18.172617920404068
 20
19.556019337588769
 30
0.0
 40
0.062
 50
315.0
 51
0.0
  0
LINE
  5
2387
  8
OBJECT
 10
4.246156928476414
 20
27.65433355438633
 30
0.0
 11
11.94415692847641
 21
27.65433355438633
 31
0.0
  0
ARC
  5
238F
  8
OBJECT
 10
3.795656928476415
 20
27.41033355438633
 30
0.0
 40
0.188
 50
90.000000000000028
 51
180.0
  0
LINE
  5
2390
  8
OBJECT
 10
3.795656928476415
 20
27.598333554386329
 30
0.0
 11
12.394656928476421
 21
27.598333554386329
 31
0.0
  0
LINE
  5
2396
  8
OBJECT
 10
4.246156928476414
 20
27.65433355438633
 30
0.0
 11
4.246156928476414
 21
27.598333554386329
 31
0.0
  0
ARC
  5
239B
  8
OBJECT
 10
18.172617920404068
 20
27.1406477711839
 30
0.0
 40
0.062
 50
0.0
 51
45.000000000000377
  0
LINE
  5
23AB
  8
OBJECT
 10
11.94415692847641
 20
27.65433355438633
 30
0.0
 11
11.94415692847641
 21
27.598333554386329
 31
0.0
  0
ARC
  5
23AD
  8
OBJECT
 10
12.394656928476421
 20
27.41033355438633
 30
0.0
 40
0.188
 50
0.000000000000007
 51
89.999999999999986
  0
LINE
  5
23B1
  8
OBJECT
 10
17.82633068081611
 20
27.574616251638979
 30
0.0
 11
18.216458540837628
 21
27.18448839161746
 31
0.0
  0
LINE
  5
23B3
  8
OBJECT
 10
17.424617920404071
 20
27.52333355438633
 30
0.0
 11
17.46461792040407
 21
27.52333355438633
 31
0.0
  0
LINE
  5
23B4
  8
OBJECT
 10
17.46461792040407
 20
27.598333554386329
 30
0.0
 11
17.783572109581659
 21
27.592766188305099
 31
0.0
  0
ARC
  5
23B5
  8
OBJECT
 10
17.782490060382539
 20
27.530775631205412
 30
0.0
 40
0.062
 50
45.000000000000092
 51
88.999999999999787
  0
LINE
  5
23B6
  8
OBJECT
 10
17.46461792040407
 20
27.67368981178652
 30
0.0
 11
17.76661792040407
 21
27.668418382178189
 31
0.0
  0
LINE
  5
23B7
  8
OBJECT
 10
17.76661792040407
 20
27.668418382178189
 30
0.0
 11
17.76661792040407
 21
27.593062124778012
 31
0.0
  0
LINE
  5
23B8
  8
OBJECT
 10
17.46461792040407
 20
27.598333554386329
 30
0.0
 11
17.46461792040407
 21
27.67368981178652
 31
0.0
  0
LINE
  5
23BA
  8
OBJECT
 10
4.2461569284764131
 20
2.846876482959547
 30
0.0
 11
4.2461569284764131
 21
2.5948764829595481
 31
0.0
  0
LINE
  5
23BB
  8
OBJECT
 10
4.3401569284764143
 20
2.846876482959547
 30
0.0
 11
4.3401569284764143
 21
2.638876482959545
 31
0.0
  0
LINE
  5
23BC
  8
OBJECT
 10
11.89415692847642
 20
2.5448764829595478
 30
0.0
 11
4.296156928476413
 21
2.5448764829595478
 31
0.0
  0
LINE
  5
23CC
  8
OBJECT
 10
11.850156928476411
 20
2.638876482959545
 30
0.0
 11
4.3401569284764143
 21
2.638876482959545
 31
0.0
  0
LINE
  5
23CD
  8
OBJECT
 10
11.850156928476411
 20
2.846876482959547
 30
0.0
 11
11.850156928476411
 21
2.638876482959545
 31
0.0
  0
LINE
  5
23CE
  8
OBJECT
 10
11.944156928476421
 20
2.846876482959547
 30
0.0
 11
11.944156928476421
 21
2.5948764829595481
 31
0.0
  0
LINE
  5
23CF
  8
OBJECT
 10
12.44630773925145
 20
5.0768764829595483
 30
0.0
 11
3.7440061177013781
 21
5.0768764829595483
 31
0.0
  0
LINE
  5
23D0
  8
OBJECT
 10
3.682656928476419
 20
2.886876482959547
 30
0.0
 11
3.682656928476419
 21
2.846876482959547
 31
0.0
  0
LINE
  5
23E1
  8
OBJECT
 10
12.58265692847641
 20
2.886876482959547
 30
0.0
 11
11.850156928476411
 21
2.886876482959547
 31
0.0
  0
LINE
  5
23E2
  8
OBJECT
 10
4.2851569284764182
 20
2.886876482959547
 30
0.0
 11
4.2851569284764208
 21
2.846876482959551
 31
0.0
  0
LINE
  5
23E4
  8
OBJECT
 10
3.6076569284764162
 20
2.886876482959547
 30
0.0
 11
3.6820438864261962
 21
5.0170402517551009
 31
0.0
  0
LINE
  5
23E5
  8
OBJECT
 10
12.58265692847641
 20
2.886876482959547
 30
0.0
 11
12.50826997052663
 21
5.0170402517551009
 31
0.0
  0
LINE
  5
23E6
  8
OBJECT
 10
11.9051569284764
 20
2.886876482959547
 30
0.0
 11
11.9051569284764
 21
2.846876482959551
 31
0.0
  0
LINE
  5
23E7
  8
OBJECT
 10
12.507656928476401
 20
2.886876482959547
 30
0.0
 11
12.507656928476401
 21
2.846876482959547
 31
0.0
  0
LINE
  5
23E9
  8
OBJECT
 10
4.2461569284764131
 20
2.886876482959547
 30
0.0
 11
4.2461569284764131
 21
3.9328764829595459
 31
0.0
  0
LINE
  5
23EA
  8
OBJECT
 10
4.3401569284764143
 20
2.886876482959547
 30
0.0
 11
4.3401569284764143
 21
3.888876482959545
 31
0.0
  0
LINE
  5
23EB
  8
OBJECT
 10
11.850156928476411
 20
3.888876482959545
 30
0.0
 11
4.3401569284764143
 21
3.888876482959545
 31
0.0
  0
LINE
  5
23EC
  8
OBJECT
 10
11.89415692847642
 20
3.9828764829595471
 30
0.0
 11
4.296156928476413
 21
3.9828764829595471
 31
0.0
  0
LINE
  5
23ED
  8
OBJECT
 10
11.850156928476411
 20
2.886876482959547
 30
0.0
 11
11.850156928476411
 21
3.888876482959545
 31
0.0
  0
LINE
  5
23EE
  8
OBJECT
 10
11.944156928476421
 20
2.886876482959547
 30
0.0
 11
11.944156928476421
 21
3.9328764829595468
 31
0.0
  0
LINE
  5
23EF
  8
OBJECT
 10
4.3401569284764143
 20
2.886876482959547
 30
0.0
 11
3.6076569284764162
 21
2.886876482959547
 31
0.0
  0
LINE
  5
23F0
  8
OBJECT
 10
4.3401569284764143
 20
2.846876482959547
 30
0.0
 11
3.6076569284764162
 21
2.846876482959547
 31
0.0
  0
LINE
  5
23F4
  8
OBJECT
 10
15.234617920404061
 20
27.461984365161332
 30
0.0
 11
15.234617920404069
 21
24.957504413090959
 31
0.0
  0
LINE
  5
23F6
  8
OBJECT
 10
17.424617920404071
 20
27.598333554386329
 30
0.0
 11
17.424617920404071
 21
19.098333554386329
 31
0.0
  0
LINE
  5
23F8
  8
OBJECT
 10
17.424617920404071
 20
27.598333554386329
 30
0.0
 11
15.294454151608511
 21
27.52394659643652
 31
0.0
  0
LINE
  5
23FA
  8
OBJECT
 10
17.424617920404071
 20
19.098333554386329
 30
0.0
 11
16.309793945951849
 21
19.137264065422048
 31
0.0
  0
LINE
  5
23FC
  8
OBJECT
 10
16.250899634060652
 20
19.188460109681881
 30
0.0
 11
15.235559839717309
 21
24.94673822607561
 31
0.0
  0
ARC
  5
242D
  8
OBJECT
 10
3.7440061177013781
 20
5.0148764829595471
 30
0.0
 40
0.062
 50
90.0
 51
178.0
  0
ARC
  5
242E
  8
OBJECT
 10
12.44630773925145
 20
5.0148764829595471
 30
0.0
 40
0.062
 50
2.0000000000000151
 51
90.0
  0
LINE
  5
2453
  8
OBJECT
 10
16.328617920404071
 20
27.635416648423561
 30
0.0
 11
16.328617920404071
 21
27.560060391023359
 31
0.0
  0
LINE
  5
2454
  8
OBJECT
 10
17.424617920404071
 20
27.598333554386329
 30
0.0
 11
17.424617920404071
 21
27.67368981178652
 31
0.0
  0
LINE
  5
2455
  8
OBJECT
 10
17.424617920404071
 20
27.67368981178652
 30
0.0
 11
16.328617920404071
 21
27.635416648423561
 31
0.0
  0
LINE
  5
245C
  8
OBJECT
 10
12.52065692847642
 20
24.952080115952359
 30
0.0
 11
3.6696569284764169
 21
24.952080115952349
 31
0.0
  0
LINE
  5
2472
  8
OBJECT
 10
12.02715692847641
 20
24.564065861265551
 30
0.0
 11
4.1631569284764183
 21
24.564065861265551
 31
0.0
  0
LINE
  5
2473
  8
OBJECT
 10
4.1631569284764183
 20
19.52703050553103
 30
0.0
 11
4.1631569284764183
 21
24.564065861265551
 31
0.0
  0
LINE
  5
2474
  8
OBJECT
 10
12.02715692847641
 20
19.52703050553103
 30
0.0
 11
4.1631569284764183
 21
19.52703050553103
 31
0.0
  0
CIRCLE
  5
2475
  8
OBJECT
 10
4.4381569284764231
 20
19.835768505489749
 30
0.0
 40
0.117
  0
CIRCLE
  5
2476
  8
OBJECT
 10
4.4381569284764231
 20
24.291339936755541
 30
0.0
 40
0.117
  0
LINE
  5
2478
  8
OBJECT
 10
12.02715692847641
 20
19.52703050553103
 30
0.0
 11
12.02715692847641
 21
24.564065861265551
 31
0.0
  0
LINE
  5
24A0
  8
HIDDEN
 10
11.587156928476411
 20
24.471378007398659
 30
0.0
 11
4.6031569284764187
 21
24.471378007398659
 31
0.0
  0
LINE
  5
24A1
  8
HIDDEN
 10
11.587156928476411
 20
19.655357439450562
 30
0.0
 11
4.6031569284764187
 21
19.655357439450562
 31
0.0
  0
LINE
  5
24A5
  8
HIDDEN
 10
4.6031569284764187
 20
19.655357439450562
 30
0.0
 11
4.6031569284764187
 21
19.916374382438569
 31
0.0
  0
LINE
  5
24A6
  8
HIDDEN
 10
11.587156928476411
 20
19.655357439450562
 30
0.0
 11
11.587156928476411
 21
19.916374382438569
 31
0.0
  0
LINE
  5
24A9
  8
HIDDEN
 10
11.914156928476411
 20
24.148361064410661
 30
0.0
 11
11.64915692847641
 21
24.148361064410661
 31
0.0
  0
LINE
  5
24AA
  8
HIDDEN
 10
11.914156928476411
 20
19.97837438243856
 30
0.0
 11
11.64915692847641
 21
19.97837438243856
 31
0.0
  0
LINE
  5
24AC
  8
HIDDEN
 10
4.2761569284764169
 20
19.97837438243857
 30
0.0
 11
4.2761569284764169
 21
24.148361064410661
 31
0.0
  0
LINE
  5
24AD
  8
HIDDEN
 10
11.914156928476411
 20
19.97837438243856
 30
0.0
 11
11.914156928476411
 21
24.148361064410661
 31
0.0
  0
LINE
  5
24AE
  8
HIDDEN
 10
4.5411569284764184
 20
19.97837438243857
 30
0.0
 11
4.2761569284764169
 21
19.97837438243857
 31
0.0
  0
LINE
  5
24AF
  8
HIDDEN
 10
4.5411569284764184
 20
24.148361064410661
 30
0.0
 11
4.2761569284764169
 21
24.148361064410661
 31
0.0
  0
LINE
  5
24B0
  8
HIDDEN
 10
11.587156928476411
 20
24.210361064410659
 30
0.0
 11
11.587156928476411
 21
24.471378007398659
 31
0.0
  0
LINE
  5
24B1
  8
HIDDEN
 10
4.6031569284764187
 20
24.210361064410659
 30
0.0
 11
4.6031569284764187
 21
24.471378007398659
 31
0.0
  0
ARC
  5
24B2
  8
HIDDEN
 10
4.5411569284764184
 20
24.210361064410659
 30
0.0
 40
0.062
 50
270.0
 51
0.0
  0
ARC
  5
24B4
  8
HIDDEN
 10
11.64915692847641
 20
24.210361064410659
 30
0.0
 40
0.062
 50
180.0
 51
270.0
  0
ARC
  5
24B5
  8
HIDDEN
 10
11.64915692847641
 20
19.916374382438569
 30
0.0
 40
0.062
 50
89.999999999999687
 51
180.0
  0
ARC
  5
24B6
  8
HIDDEN
 10
4.5411569284764184
 20
19.916374382438569
 30
0.0
 40
0.062
 50
0.0
 51
90.000000000000298
  0
LINE
  5
24B8
  8
OBJECT
 10
3.8726569284764158
 20
27.39520683516934
 30
0.0
 11
12.31765692847641
 21
27.39520683516934
 31
0.0
  0
LINE
  5
24B9
  8
OBJECT
 10
3.8726569284764158
 20
25.155206835169349
 30
0.0
 11
12.31765692847641
 21
25.155206835169349
 31
0.0
  0
LINE
  5
24C9
  8
OBJECT
 10
12.379656928476409
 20
27.333206835169339
 30
0.0
 11
12.37965692847642
 21
25.21720683516935
 31
0.0
  0
LINE
  5
24CA
  8
OBJECT
 10
3.8106569284764151
 20
25.21720683516935
 30
0.0
 11
3.8106569284764151
 21
27.333206835169339
 31
0.0
  0
LINE
  5
24CB
  8
OBJECT
 10
3.8326569284764171
 20
27.43520683516935
 30
0.0
 11
12.357656928476411
 21
27.43520683516935
 31
0.0
  0
LINE
  5
24CC
  8
OBJECT
 10
3.8326569284764171
 20
25.115206835169339
 30
0.0
 11
12.357656928476411
 21
25.115206835169339
 31
0.0
  0
LINE
  5
24CD
  8
OBJECT
 10
12.41965692847641
 20
27.373206835169348
 30
0.0
 11
12.41965692847641
 21
25.17720683516934
 31
0.0
  0
LINE
  5
24CF
  8
OBJECT
 10
3.770656928476416
 20
25.17720683516934
 30
0.0
 11
3.770656928476416
 21
27.373206835169348
 31
0.0
  0
ARC
  5
24D0
  8
OBJECT
 10
3.8726569284764158
 20
25.21720683516935
 30
0.0
 40
0.062
 50
180.0
 51
270.0
  0
ARC
  5
24D1
  8
OBJECT
 10
3.8726569284764158
 20
27.333206835169339
 30
0.0
 40
0.062
 50
90.000000000000028
 51
180.0
  0
ARC
  5
24D2
  8
OBJECT
 10
12.31765692847641
 20
27.333206835169339
 30
0.0
 40
0.062
 50
0.0000000000000382
 51
90.0
  0
ARC
  5
24D3
  8
OBJECT
 10
12.31765692847641
 20
25.21720683516935
 30
0.0
 40
0.062
 50
270.0
 51
0.0000000000000382
  0
ARC
  5
24D8
  8
OBJECT
 10
3.8326569284764171
 20
27.373206835169348
 30
0.0
 40
0.062
 50
90.0
 51
180.0
  0
ARC
  5
24D9
  8
OBJECT
 10
12.357656928476411
 20
27.373206835169348
 30
0.0
 40
0.062
 50
0.0000000000001018
 51
89.999999999999986
  0
ARC
  5
24DA
  8
OBJECT
 10
12.357656928476411
 20
25.17720683516934
 30
0.0
 40
0.062
 50
270.0
 51
0.0000000000000382
  0
ARC
  5
24DB
  8
OBJECT
 10
3.8326569284764171
 20
25.17720683516934
 30
0.0
 40
0.062
 50
180.0
 51
270.0
  0
ARC
  5
25AE
  8
OBJECT
 10
15.29661792040406
 20
27.461984365161332
 30
0.0
 40
0.062
 50
92.00000000000081
 51
180.0
  0
ARC
  5
25AF
  8
OBJECT
 10
16.3119577147474
 20
19.19922629669723
 30
0.0
 40
0.062
 50
190.0
 51
268.00000000000011
  0
ARC
  5
25F2
  8
OBJECT
 10
15.296617920404071
 20
24.957504413090959
 30
0.0
 40
0.062
 50
180.0
 51
190.0
  0
TEXT
  5
28F7
  8
TEXT
 10
4.7349658998714581
 20
30.586789370342512
 30
0.0
 40
0.375
  1
PLASTICASE
 41
0.75
 72
     1
 11
6.0474658998714581
 21
30.586789370342512
 31
0.0
  0
TEXT
  5
28F8
  8
TEXT
 10
15.87252315579069
 20
30.586789370342512
 30
0.0
 40
0.375
  1
PC-11493
 41
0.75
 72
     1
 11
16.856898155790692
 21
30.586789370342512
 31
0.0
  0
TEXT
  5
2BC3
  8
TEXT
 10
14.05628250936455
 20
6.537056324720111
 30
0.0
 40
0.25
  1
SUPPLIED FOR ASSEMBLING BODY
 41
0.75
  0
TEXT
  5
2BC4
  8
TEXT
 10
13.690491170760779
 20
3.5044705260735141
 30
0.0
 40
0.25
  1
MOUNTING BOSSES USE EITHER M2.5 METRIC
 41
0.75
  0
TEXT
  5
2BC5
  8
TEXT
 10
14.05628250936455
 20
3.0892324307835142
 30
0.0
 40
0.25
  1
OR #4 STD. SHEET METAL SCREWS x 0.188"
 41
0.75
  0
TEXT
  5
2BC6
  8
TEXT
 10
13.690491170760779
 20
2.0218749395364308
 30
0.0
 40
0.25
  1
NOTE: ALL DIMENSIONS HAVE %%P0.015
 41
0.75
  0
TEXT
  5
2BC7
  8
TEXT
 10
14.05628250936455
 20
1.6066368442464301
 30
0.0
 40
0.25
  1
TOLERANCE UNLESS OTHERWISE SPECIFIED
 41
0.75
  0
TEXT
  5
2BC8
  8
TEXT
 10
13.690491170760779
 20
5.5087410995009662
 30
0.0
 40
0.25
  1
FOUR (4) M3 x 0.315" LG. CSK. SCREWS
 41
0.75
  0
TEXT
  5
2BC9
  8
TEXT
 10
14.05628250936455
 20
5.093503004210965
 30
0.0
 40
0.25
  1
SUPPLIED FOR ASSEMBLING SLOPE
 41
0.75
  0
TEXT
  5
2BCA
  8
TEXT
 10
13.690491170760779
 20
4.133184161546775
 30
0.0
 40
0.25
  1
FOUR (4) RUBBER STICK-ON FEET SUPPLIED
 41
0.75
  0
TEXT
  5
2BCB
  8
TEXT
 10
13.690491170760779
 20
6.9522944200101122
 30
0.0
 40
0.25
  1
FOUR (4) M3 x 0.630" LG. SCREWS
 41
0.75
  0
TEXT
  5
2BCC
  8
TEXT
 10
14.05628250936455
 20
2.6739943354935138
 30
0.0
 40
0.25
  1
LG. (NOT SUPPLIED)
 41
0.75
  0
TEXT
  5
2BCD
  8
TEXT
 10
14.05628250936455
 20
6.1218182294301107
 30
0.0
 40
0.25
  1
TOP TO BOTTOM
 41
0.75
  0
TEXT
  5
2BCE
  8
TEXT
 10
14.05628250936455
 20
4.6782649089209647
 30
0.0
 40
0.25
  1
PANEL TO BODY TOP
 41
0.75
  0
TEXT
  5
2BCF
  8
TEXT
 10
9.7322157690883166
 20
29.120912750132351
 30
0.0
 40
0.25
  1
0.100 THK. ALUMINUM
 41
0.75
  0
TEXT
  5
2BD0
  8
TEXT
 10
1.284528261369448
 20
28.694019338371849
 30
0.0
 40
0.25
  1
FINISH: BODY TOP & BOTTOM
 41
0.75
  0
TEXT
  5
2BD1
  8
TEXT
 10
1.284528261369448
 20
29.914265438705129
 30
0.0
 40
0.25
  1
MATERIAL: BODY TOP & BOTTOM, REAR PANEL
 41
0.75
  0
LINE
  5
2BD2
  8
TEXT
 10
4.8541748435403766
 20
27.87092004000645
 30
0.0
 11
9.5414845973703137
 21
27.87092004000645
 31
0.0
  0
LINE
  5
2BD3
  8
TEXT
 10
5.8008819675172978
 20
28.688397738180321
 30
0.0
 11
9.5450092765318786
 21
28.688397738180321
 31
0.0
  0
LINE
  5
2BD4
  8
TEXT
 10
4.5372389789831216
 20
28.267537968937958
 30
0.0
 11
9.5450092765318786
 21
28.267537968937958
 31
0.0
  0
LINE
  5
2BD5
  8
TEXT
 10
5.2072609828726888
 20
29.118294593311301
 30
0.0
 11
9.5684101048258796
 21
29.118294593311301
 31
0.0
  0
TEXT
  5
2BD6
  8
TEXT
 10
2.5481712499036422
 20
28.278781243081859
 30
0.0
 40
0.25
  1
REAR PANEL
 41
0.75
  0
TEXT
  5
2BD7
  8
TEXT
 10
2.5481712499036422
 20
27.863543147791852
 30
0.0
 40
0.25
  1
SLOPE PANEL
 41
0.75
  0
TEXT
  5
2BD8
  8
TEXT
 10
2.9573619379830971
 20
29.118294593311301
 30
0.0
 40
0.25
  1
SLOPE PANEL
 41
0.75
  0
TEXT
  5
2BD9
  8
TEXT
 10
9.7088149407943192
 20
28.27315964289031
 30
0.0
 40
0.25
  1
DARK GRAY
 41
0.75
  0
TEXT
  5
2BDA
  8
TEXT
 10
9.7088149407943192
 20
27.85792154760032
 30
0.0
 40
0.25
  1
NATURAL
 41
0.75
  0
TEXT
  5
2BDB
  8
TEXT
 10
9.7088149407943192
 20
28.688397738180321
 30
0.0
 40
0.25
  1
LIGHT GRAY
 41
0.75
  0
TEXT
  5
2BDC
  8
TEXT
 10
9.7322157690883166
 20
29.914265438705129
 30
0.0
 40
0.25
  1
ABS THERMOPLASTIC
 41
0.75
  0
LINE
  5
2BDD
  8
TEXT
 10
8.3515686390841957
 20
29.914265438705129
 30
0.0
 11
9.5684101048258796
 21
29.914265438705129
 31
0.0
  0
LINE
  5
2F9F
  8
DIM
 10
16.259617920404072
 20
18.875263948094439
 30
0.0
 11
16.259617920404072
 21
18.01503136920557
 31
0.0
  0
TEXT
  5
32C2
  8
TEXT
 10
9.7322157690883166
 20
29.515013258630759
 30
0.0
 40
0.25
  1
(UL94-HB RATED)
 41
0.75
  0
LINE
  5
32C6
  8
HIDDEN
 10
17.044248143685259
 20
15.732532391307471
 30
0.0
 11
17.044248143685259
 21
8.082532391307474
 31
0.0
  0
LINE
  5
32D8
  8
HIDDEN
 10
16.26324814368526
 20
8.1130323913074687
 30
0.0
 11
16.479248143685268
 21
8.1130323913074687
 31
0.0
  0
LINE
  5
32D9
  8
HIDDEN
 10
16.26324814368526
 20
7.9880323913074696
 30
0.0
 11
16.479248143685268
 21
7.9880323913074696
 31
0.0
  0
LINE
  5
32E3
  8
HIDDEN
 10
16.298248143685271
 20
15.59703239130747
 30
0.0
 11
17.044248143685259
 21
15.59703239130739
 31
0.0
  0
LINE
  5
32E4
  8
HIDDEN
 10
15.414248143685271
 20
15.827032391307471
 30
0.0
 11
15.63024814368527
 21
15.827032391307471
 31
0.0
  0
LINE
  5
32E5
  8
HIDDEN
 10
15.414248143685271
 20
15.702032391307471
 30
0.0
 11
15.63024814368527
 21
15.702032391307471
 31
0.0
  0
LINE
  5
32E7
  8
HIDDEN
 10
16.298248143685271
 20
15.93203239130747
 30
0.0
 11
16.844748143685269
 21
15.93203239130747
 31
0.0
  0
ARC
  5
32E8
  8
OBJECT
 10
17.306796191631729
 20
15.91315351691639
 30
0.0
 40
0.309455422548424
 50
184.37771779307209
 51
242.15348731679009
  0
LINE
  5
32EE
  8
OBJECT
 10
12.450656928476411
 20
7.7894629033562017
 30
0.0
 11
3.7396569284764212
 21
7.7894629033562017
 31
0.0
  0
LINE
  5
330E
  8
OBJECT
 10
12.45065692847642
 20
16.02560187925874
 30
0.0
 11
12.450656928476411
 21
15.789532391307469
 31
0.0
  0
LINE
  5
330F
  8
OBJECT
 10
12.30424437639361
 20
7.9358549957097919
 30
0.0
 11
12.4575884091321
 21
7.7825323913074733
 31
0.0
  0
LINE
  5
3312
  8
OBJECT
 10
3.7396569284764172
 20
16.02560187925874
 30
0.0
 11
3.7396569284764172
 21
15.789532391307469
 31
0.0
  0
LINE
  5
3318
  8
OBJECT
 10
11.638156928476411
 20
8.082532391307474
 30
0.0
 11
12.017742056886281
 21
8.0825323913074723
 31
0.0
  0
LINE
  5
3319
  8
OBJECT
 10
12.017742056886281
 20
8.0825323913074723
 30
0.0
 11
4.172571800066545
 21
8.082532391307474
 31
0.0
  0
LINE
  5
331D
  8
HIDDEN
 10
16.744248143685269
 20
7.7825323913074733
 30
0.0
 11
17.044248143685259
 21
8.082532391307474
 31
0.0
  0
LINE
  5
332F
  8
HIDDEN
 10
16.298248143685271
 20
7.7825323913074733
 30
0.0
 11
16.744248143685269
 21
7.7825323913074733
 31
0.0
  0
LINE
  5
3331
  8
HIDDEN
 10
16.298248143685271
 20
16.03253239130747
 30
0.0
 11
16.744248143685269
 21
16.03253239130747
 31
0.0
  0
LINE
  5
3332
  8
HIDDEN
 10
16.744248143685269
 20
16.03253239130747
 30
0.0
 11
17.044248143685259
 21
15.732532391307471
 31
0.0
  0
LINE
  5
3334
  8
OBJECT
 10
3.8860694805592209
 20
7.9358549957097919
 30
0.0
 11
3.7327254478207261
 21
7.7825323913074733
 31
0.0
  0
LINE
  5
3336
  8
OBJECT
 10
12.017742056886281
 20
15.732532391307471
 30
0.0
 11
4.172571800066545
 21
15.73253239130746
 31
0.0
  0
LINE
  5
3337
  8
OBJECT
 10
12.30424437639361
 20
15.87920978690515
 30
0.0
 11
12.4575884091321
 21
16.032532391307459
 31
0.0
  0
LINE
  5
3338
  8
OBJECT
 10
3.8860694805592209
 20
15.87920978690515
 30
0.0
 11
3.7327254478207261
 21
16.032532391307459
 31
0.0
  0
LINE
  5
333A
  8
OBJECT
 10
4.032656928476416
 20
15.598833869889811
 30
0.0
 11
4.0326569284764204
 21
8.2162309127251341
 31
0.0
  0
LINE
  5
333B
  8
OBJECT
 10
3.7396569284764172
 20
16.02560187925874
 30
0.0
 11
4.2461569284764131
 21
16.02560187925874
 31
0.0
  0
LINE
  5
333C
  8
OBJECT
 10
3.7396569284764172
 20
15.739532391307471
 30
0.0
 11
3.7396569284764212
 21
8.075532391307469
 31
0.0
  0
LINE
  5
333D
  8
OBJECT
 10
3.7396569284764212
 20
8.0255323913074719
 30
0.0
 11
3.7396569284764212
 21
7.7894629033562017
 31
0.0
  0
LINE
  5
333E
  8
OBJECT
 10
12.450656928476411
 20
8.0255323913074719
 30
0.0
 11
12.450656928476411
 21
7.7894629033562017
 31
0.0
  0
LINE
  5
333F
  8
OBJECT
 10
12.15765692847641
 20
15.598833869889811
 30
0.0
 11
12.15765692847641
 21
8.2162309127251341
 31
0.0
  0
LINE
  5
3340
  8
OBJECT
 10
12.450656928476411
 20
15.739532391307471
 30
0.0
 11
12.450656928476411
 21
8.075532391307469
 31
0.0
  0
LINE
  5
3341
  8
OBJECT
 10
12.45065692847642
 20
16.02560187925874
 30
0.0
 11
11.94415692847641
 21
16.02560187925874
 31
0.0
  0
LINE
  5
3358
  8
HIDDEN
 10
16.60024814368527
 20
16.229257995202591
 30
0.0
 11
16.60024814368526
 21
16.15753239130747
 31
0.0
  0
TEXT
  5
3367
  8
TEXT
 10
14.05628250936455
 20
0.5986982931470806
 30
0.0
 40
0.25
  1
FROM CLOSED END OF THE BOX
 41
0.75
  0
TEXT
  5
3368
  8
TEXT
 10
13.690491170760779
 20
1.01393638843708
 30
0.0
 40
0.25
  1
* THESE INSIDE DIMENSIONS ARE TAKEN
 41
0.75
  0
LINE
  5
33C4
  8
HIDDEN
 10
16.298248143685271
 20
16.053532391307471
 30
0.0
 11
16.660248143685269
 21
16.053532391307471
 31
0.0
  0
LINE
  5
33C5
  8
HIDDEN
 10
16.392248143685269
 20
16.15753239130747
 30
0.0
 11
16.660248143685269
 21
16.15753239130747
 31
0.0
  0
LINE
  5
33C6
  8
HIDDEN
 10
16.660248143685269
 20
16.15753239130747
 30
0.0
 11
16.660248143685269
 21
16.053532391307471
 31
0.0
  0
LINE
  5
33C7
  8
HIDDEN
 10
16.60024814368526
 20
16.05353239130746
 30
0.0
 11
16.60024814368526
 21
15.99453239130747
 31
0.0
  0
LINE
  5
33C8
  8
HIDDEN
 10
16.298248143685271
 20
15.99453239130747
 30
0.0
 11
16.782248143685269
 21
15.99453239130747
 31
0.0
  0
LINE
  5
3416
  8
HIDDEN
 10
12.15765692847641
 20
2.1948764829595531
 30
0.0
 11
4.0326569284764133
 21
2.1948764829595531
 31
0.0
  0
LINE
  5
3417
  8
HIDDEN
 10
12.45765692847641
 20
2.4948764829595471
 30
0.0
 11
12.15765692847641
 21
2.1948764829595531
 31
0.0
  0
LINE
  5
3418
  8
HIDDEN
 10
12.45765692847641
 20
2.9408764829595491
 30
0.0
 11
12.45765692847641
 21
2.4948764829595471
 31
0.0
  0
LINE
  5
3419
  8
HIDDEN
 10
12.507656928476401
 20
2.9408764829595491
 30
0.0
 11
11.9051569284764
 21
2.9408764829595491
 31
0.0
  0
LINE
  5
341A
  8
HIDDEN
 10
12.507656928476401
 20
2.9408764829595491
 30
0.0
 11
12.507656928476401
 21
2.886876482959547
 31
0.0
  0
LINE
  5
341D
  8
HIDDEN
 10
12.24465692847642
 20
3.8248764829595419
 30
0.0
 11
12.24465692847642
 21
3.6088764829595412
 31
0.0
  0
LINE
  5
341E
  8
HIDDEN
 10
12.11965692847642
 20
3.8248764829595419
 30
0.0
 11
12.11965692847642
 21
3.6088764829595412
 31
0.0
  0
LINE
  5
3438
  8
HIDDEN
 10
11.9051569284764
 20
2.578876482959545
 30
0.0
 11
4.2851569284764182
 21
2.5788764829595459
 31
0.0
  0
LINE
  5
3439
  8
HIDDEN
 10
11.9051569284764
 20
2.846876482959547
 30
0.0
 11
11.9051569284764
 21
2.578876482959545
 31
0.0
  0
LINE
  5
343A
  8
HIDDEN
 10
11.9051569284764
 20
2.886876482959547
 30
0.0
 11
11.90515692847641
 21
3.948876482959546
 31
0.0
  0
LINE
  5
343B
  8
HIDDEN
 10
11.90515692847641
 20
3.948876482959546
 30
0.0
 11
4.2851569284764164
 21
3.948876482959546
 31
0.0
  0
LINE
  5
3440
  8
HIDDEN
 10
4.2851569284764182
 20
2.886876482959547
 30
0.0
 11
4.2851569284764164
 21
3.948876482959546
 31
0.0
  0
LINE
  5
3442
  8
HIDDEN
 10
4.0706569284764056
 20
3.8248764829595419
 30
0.0
 11
4.0706569284764056
 21
3.6088764829595412
 31
0.0
  0
LINE
  5
3443
  8
HIDDEN
 10
3.945656928476406
 20
3.8248764829595419
 30
0.0
 11
3.945656928476406
 21
3.6088764829595412
 31
0.0
  0
LINE
  5
3445
  8
HIDDEN
 10
3.7326569284764162
 20
2.9408764829595491
 30
0.0
 11
3.7326569284764162
 21
2.4948764829595471
 31
0.0
  0
LINE
  5
3446
  8
HIDDEN
 10
3.7326569284764162
 20
2.4948764829595471
 30
0.0
 11
4.0326569284764133
 21
2.1948764829595531
 31
0.0
  0
LINE
  5
3447
  8
HIDDEN
 10
4.2851569284764182
 20
2.846876482959547
 30
0.0
 11
4.2851569284764182
 21
2.578876482959545
 31
0.0
  0
LINE
  5
3448
  8
HIDDEN
 10
3.682656928476419
 20
2.9408764829595491
 30
0.0
 11
3.682656928476419
 21
2.886876482959547
 31
0.0
  0
LINE
  5
3449
  8
HIDDEN
 10
4.2851569284764182
 20
2.9408764829595522
 30
0.0
 11
3.682656928476419
 21
2.9408764829595522
 31
0.0
  0
LINE
  5
3469
  8
HIDDEN
 10
12.38718681564206
 20
4.9588764829595471
 30
0.0
 11
3.803127041310769
 21
4.9588764829595471
 31
0.0
  0
LINE
  5
346B
  8
HIDDEN
 10
12.45765692847641
 20
2.9408764829595491
 30
0.0
 11
12.38718681564206
 21
4.9588764829595471
 31
0.0
  0
LINE
  5
346C
  8
HIDDEN
 10
12.45765692847641
 20
2.825876482959548
 30
0.0
 11
12.34965692847641
 21
2.825876482959548
 31
0.0
  0
LINE
  5
346E
  8
HIDDEN
 10
3.7326569284764162
 20
2.825876482959548
 30
0.0
 11
3.8406569284764092
 21
2.825876482959548
 31
0.0
  0
LINE
  5
3474
  8
HIDDEN
 10
12.067156928476409
 20
3.8248764829595419
 30
0.0
 11
12.067156928476409
 21
4.9588764829595471
 31
0.0
  0
LINE
  5
3475
  8
HIDDEN
 10
12.29715692847641
 20
3.8248764829595419
 30
0.0
 11
12.29715692847641
 21
4.9588764829595471
 31
0.0
  0
LINE
  5
347B
  8
HIDDEN
 10
4.1231569284764129
 20
3.8248764829595419
 30
0.0
 11
4.1231569284764129
 21
4.9588764829595471
 31
0.0
  0
LINE
  5
347D
  8
HIDDEN
 10
3.8931569284764129
 20
3.8248764829595419
 30
0.0
 11
3.8931569284764129
 21
4.9588764829595471
 31
0.0
  0
LINE
  5
347E
  8
HIDDEN
 10
3.7326569284764188
 20
2.9408764829595491
 30
0.0
 11
3.803127041310769
 21
4.9588764829595471
 31
0.0
  0
LINE
  5
347F
  8
HIDDEN
 10
15.352617920404059
 20
27.402863441551951
 30
0.0
 11
15.35261792040407
 21
25.169719515641539
 31
0.0
  0
LINE
  5
3480
  8
HIDDEN
 10
17.370617920404069
 20
19.223333554386329
 30
0.0
 11
17.81661792040407
 21
19.223333554386329
 31
0.0
  0
LINE
  5
3484
  8
HIDDEN
 10
17.335617920404061
 20
19.42883355438633
 30
0.0
 11
17.551617920404059
 21
19.42883355438633
 31
0.0
  0
LINE
  5
3485
  8
HIDDEN
 10
17.335617920404061
 20
19.553833554386319
 30
0.0
 11
17.551617920404059
 21
19.553833554386319
 31
0.0
  0
LINE
  5
3489
  8
HIDDEN
 10
17.81661792040407
 20
19.223333554386329
 30
0.0
 11
18.116617920404071
 21
19.52333355438633
 31
0.0
  0
LINE
  5
348A
  8
HIDDEN
 10
18.11661792040406
 20
27.173333554386328
 30
0.0
 11
18.116617920404071
 21
19.52333355438633
 31
0.0
  0
ARC
  5
348B
  8
OBJECT
 10
18.379165968350531
 20
19.342712428777411
 30
0.0
 40
0.309455422548424
 50
117.8465126832098
 51
175.62228220692779
  0
LINE
  5
348D
  8
HIDDEN
 10
17.370617920404069
 20
27.52333355438633
 30
0.0
 11
17.370617920404069
 21
19.173333554386328
 31
0.0
  0
LINE
  5
3492
  8
HIDDEN
 10
16.486617920404079
 20
27.142833554386328
 30
0.0
 11
16.70261792040408
 21
27.142833554386328
 31
0.0
  0
LINE
  5
3493
  8
HIDDEN
 10
16.486617920404079
 20
27.267833554386328
 30
0.0
 11
16.70261792040408
 21
27.267833554386328
 31
0.0
  0
ARC
  5
3494
  8
OBJECT
 10
18.379165968350531
 20
27.35395467999524
 30
0.0
 40
0.309455422548424
 50
184.37771779307209
 51
242.15348731679009
  0
ARC
  5
3495
  8
OBJECT
 10
18.172617920404068
 20
27.1406477711839
 30
0.0
 40
0.062
 50
0.0
 51
45.000000000000377
  0
LINE
  5
3496
  8
HIDDEN
 10
17.81661792040407
 20
27.473333554386329
 30
0.0
 11
18.11661792040406
 21
27.173333554386328
 31
0.0
  0
LINE
  5
3497
  8
HIDDEN
 10
17.370617920404069
 20
27.473333554386329
 30
0.0
 11
17.81661792040407
 21
27.473333554386329
 31
0.0
  0
LINE
  5
3498
  8
HIDDEN
 10
17.370617920404069
 20
27.435333554386329
 30
0.0
 11
17.85461792040407
 21
27.435333554386329
 31
0.0
  0
LINE
  5
3499
  8
HIDDEN
 10
17.672617920404061
 20
27.494333554386319
 30
0.0
 11
17.672617920404061
 21
27.435333554386329
 31
0.0
  0
LINE
  5
349A
  8
HIDDEN
 10
17.672617920404068
 20
27.67005915828145
 30
0.0
 11
17.672617920404068
 21
27.598333554386329
 31
0.0
  0
LINE
  5
349B
  8
HIDDEN
 10
17.732617920404071
 20
27.598333554386329
 30
0.0
 11
17.732617920404071
 21
27.494333554386319
 31
0.0
  0
LINE
  5
349C
  8
HIDDEN
 10
17.370617920404069
 20
27.494333554386319
 30
0.0
 11
17.732617920404071
 21
27.494333554386319
 31
0.0
  0
LINE
  5
349D
  8
HIDDEN
 10
17.46461792040407
 20
27.598333554386329
 30
0.0
 11
17.732617920404071
 21
27.598333554386329
 31
0.0
  0
LINE
  5
349E
  8
HIDDEN
 10
17.370617920404069
 20
27.52333355438633
 30
0.0
 11
17.424617920404071
 21
27.523333554386319
 31
0.0
  0
LINE
  5
34A0
  8
HIDDEN
 10
17.370617920404069
 20
19.173333554386328
 30
0.0
 11
17.424617920404071
 21
19.173333554386328
 31
0.0
  0
LINE
  5
34A7
  8
HIDDEN
 10
16.486617920404079
 20
27.090333554386319
 30
0.0
 11
15.35261792040407
 21
27.090333554386319
 31
0.0
  0
LINE
  5
34A8
  8
HIDDEN
 10
16.486617920404079
 20
27.32033355438633
 30
0.0
 11
15.35261792040407
 21
27.32033355438633
 31
0.0
  0
LINE
  5
34A9
  8
HIDDEN
 10
17.370617920404069
 20
27.473333554386329
 30
0.0
 11
15.352617920404059
 21
27.402863441551951
 31
0.0
  0
ARC
  5
34BD
  8
OBJECT
 10
4.296156928476413
 20
2.5948764829595481
 30
0.0
 40
0.05
 50
180.0
 51
270.0
  0
ARC
  5
34BE
  8
OBJECT
 10
4.296156928476413
 20
3.9328764829595459
 30
0.0
 40
0.05
 50
90.0
 51
180.0
  0
ARC
  5
34BF
  8
OBJECT
 10
11.89415692847642
 20
2.5948764829595481
 30
0.0
 40
0.05
 50
270.0
 51
0.0
  0
ARC
  5
34C0
  8
OBJECT
 10
11.89415692847642
 20
3.9328764829595468
 30
0.0
 40
0.05
 50
0.0
 51
90.0
  0
LINE
  5
34C1
  8
HIDDEN
 10
16.422617920404068
 20
27.635416648423561
 30
0.0
 11
16.422617920404068
 21
27.59833355438634
 31
0.0
  0
LINE
  5
34C2
  8
HIDDEN
 10
16.362617920404059
 20
27.598333554386329
 30
0.0
 11
16.36261792040407
 21
27.494333554386319
 31
0.0
  0
LINE
  5
34C3
  8
HIDDEN
 10
17.370617920404069
 20
27.494333554386319
 30
0.0
 11
16.36261792040407
 21
27.494333554386319
 31
0.0
  0
LINE
  5
34C4
  8
HIDDEN
 10
17.46461792040407
 20
27.598333554386329
 30
0.0
 11
16.362617920404059
 21
27.598333554386329
 31
0.0
  0
LINE
  5
34C5
  8
HIDDEN
 10
17.370617920404069
 20
27.435333554386329
 30
0.0
 11
16.28244029565359
 21
27.435333554386322
 31
0.0
  0
LINE
  5
34C6
  8
HIDDEN
 10
16.422617920404068
 20
27.494333554386319
 30
0.0
 11
16.422617920404068
 21
27.435333554386329
 31
0.0
  0
LINE
  5
34C7
  8
HIDDEN
 10
17.370617920404069
 20
19.223333554386329
 30
0.0
 11
16.395119597667911
 21
19.257398706454179
 31
0.0
  0
LINE
  5
34C9
  8
HIDDEN
 10
16.43330251057159
 20
19.45548412146988
 30
0.0
 11
15.51985831905866
 21
24.635883558032489
 31
0.0
  0
LINE
  5
34CA
  8
HIDDEN
 10
16.395119597667911
 20
19.257398706454179
 30
0.0
 11
16.3623963523547
 21
19.442981452677859
 31
0.0
  0
LINE
  5
34D9
  8
HIDDEN
 10
17.335617920404061
 20
19.606333554386332
 30
0.0
 11
16.406703685523841
 21
19.606333554386332
 31
0.0
  0
LINE
  5
34DA
  8
HIDDEN
 10
17.335617920404061
 20
19.376333554386331
 30
0.0
 11
16.37414817503101
 21
19.376333554386331
 31
0.0
  0
LINE
  5
3628
  8
HIDDEN
 10
16.43330251057159
 20
19.45548412146988
 30
0.0
 11
16.3623963523547
 21
19.442981452677859
 31
0.0
  0
LINE
  5
3629
  8
HIDDEN
 10
15.51985831905866
 20
24.635883558032489
 30
0.0
 11
15.448952160841779
 21
24.623380889240469
 31
0.0
  0
LINE
  5
362A
  8
HIDDEN
 10
15.448952160841779
 20
24.623380889240469
 30
0.0
 11
15.37280959560457
 21
25.05520683516934
 31
0.0
  0
TEXT
  5
369B
  8
TEXT
 10
2.3269784056676879
 20
6.3718813937198737
 30
0.0
 40
0.25
  1
%%UBODY BOTTOM
 41
0.75
  0
TEXT
  5
369C
  8
TEXT
 10
2.0683831055560509
 20
1.0900907319860229
 30
0.0
 40
0.25
  1
%%UREAR VIEW
 41
0.75
  0
TEXT
  5
369D
  8
TEXT
 10
1.3141469584836321
 20
5.9843151204237008
 30
0.0
 40
0.25
  1
(WITH BODY TOP REMOVED)
 41
0.75
  0
LINE
  5
36DC
  8
DIM
 10
17.908325257342941
 20
21.159009146282621
 30
0.0
 11
18.116617920404071
 21
19.977722753104299
 31
0.0
  0
LINE
  5
3FBE
  8
HIDDEN
 10
12.29715692847641
 20
3.9218764829595409
 30
0.0
 11
12.423399653604999
 21
3.9218764829595409
 31
0.0
  0
LINE
  5
3FBF
  8
HIDDEN
 10
3.8931569284764151
 20
3.9218764829595409
 30
0.0
 11
3.7669142033478269
 21
3.9218764829595409
 31
0.0
  0
LINE
  5
3FD7
  8
HIDDEN
 10
15.362229976762061
 20
25.115206835169339
 30
0.0
 11
15.35261792040407
 21
25.169719515641539
 31
0.0
  0
TEXT
  5
3FF2
  8
DIM
 10
16.409980084830259
 20
25.953294892363399
 30
0.0
 40
0.25
  1
MAX.
 41
0.75
  0
TEXT
  5
4007
  8
DIM
 10
16.503712022794009
 20
24.770926480128971
 30
0.0
 40
0.25
  1
MAX.
 41
0.75
  0
TEXT
  5
400C
  8
DIM
 10
16.68433144108436
 20
20.614336216677302
 30
0.0
 40
0.25
  1
MIN.
 41
0.75
  0
TEXT
  5
4025
  8
DIM
 10
14.639352401280769
 20
22.060537911570211
 30
0.0
 40
0.25
  1
MIN.
 41
0.75
  0
LINE
  5
4036
  8
OBJECT
 10
4.3946698614334494
 20
19.792281438446778
 30
0.0
 11
4.4816439955193976
 21
19.87925557253272
 31
0.0
  0
LINE
  5
4037
  8
OBJECT
 10
4.3946698614334494
 20
19.87925557253272
 30
0.0
 11
4.4816439955193976
 21
19.792281438446778
 31
0.0
  0
LINE
  5
4038
  8
OBJECT
 10
4.3946698614334494
 20
24.334827003798509
 30
0.0
 11
4.4816439955193976
 21
24.24785286971257
 31
0.0
  0
LINE
  5
4039
  8
OBJECT
 10
4.3946698614334494
 20
24.24785286971257
 30
0.0
 11
4.4816439955193976
 21
24.334827003798509
 31
0.0
  0
LINE
  5
4B3A
  8
HIDDEN
 10
15.60251485162811
 20
24.16711506759869
 30
0.0
 11
15.496155614302801
 21
24.148361064410661
 31
0.0
  0
LINE
  5
4B3B
  8
HIDDEN
 10
15.58511798675746
 20
24.265777591058011
 30
0.0
 11
15.478758749432149
 21
24.247023587869979
 31
0.0
  0
LINE
  5
4B3C
  8
HIDDEN
 10
15.569489650767441
 20
24.354410288829111
 30
0.0
 11
15.463130413442119
 21
24.335656285641079
 31
0.0
  0
LINE
  5
4B3D
  8
HIDDEN
 10
15.54555824935337
 20
24.490132010586692
 30
0.0
 11
15.43919901202805
 21
24.47137800739867
 31
0.0
  0
LINE
  5
4B3E
  8
HIDDEN
 10
15.41966359204052
 20
24.582168879612539
 30
0.0
 11
15.30345627718509
 21
24.561678394647839
 31
0.0
  0
LINE
  5
4B3F
  8
HIDDEN
 10
16.307928797791739
 20
19.544566567236679
 30
0.0
 11
15.41966359204052
 21
24.582168879612539
 31
0.0
  0
LINE
  5
4B40
  8
HIDDEN
 10
16.307928797791739
 20
19.544566567236679
 30
0.0
 11
16.191721482936298
 21
19.524076082271989
 31
0.0
  0
LINE
  5
4B41
  8
HIDDEN
 10
16.337796012854781
 20
19.997128385626588
 30
0.0
 11
16.23143677552947
 21
19.97837438243857
 31
0.0
  0
LINE
  5
4B42
  8
HIDDEN
 10
16.394752615129541
 20
19.674111442638591
 30
0.0
 11
16.288393377804219
 21
19.655357439450569
 31
0.0
  0
LINE
  5
4B43
  8
HIDDEN
 10
16.370875990700331
 20
19.809522508677759
 30
0.0
 11
16.264516753375009
 21
19.790768505489741
 31
0.0
  0
LINE
  5
4B44
  8
HIDDEN
 10
16.355247654710301
 20
19.89815520644887
 30
0.0
 11
16.248888417384979
 21
19.879401203260841
 31
0.0
  0
CIRCLE
  5
4B4F
  8
OBJECT
 10
11.75215692847641
 20
24.291339936755541
 30
0.0
 40
0.117
  0
LINE
  5
4B50
  8
OBJECT
 10
11.795643995519381
 20
24.334827003798509
 30
0.0
 11
11.70866986143343
 21
24.24785286971257
 31
0.0
  0
LINE
  5
4B51
  8
OBJECT
 10
11.795643995519381
 20
24.24785286971257
 30
0.0
 11
11.70866986143343
 21
24.334827003798509
 31
0.0
  0
CIRCLE
  5
4B52
  8
OBJECT
 10
11.75215692847641
 20
19.835768505489749
 30
0.0
 40
0.117
  0
LINE
  5
4B53
  8
OBJECT
 10
11.795643995519381
 20
19.792281438446778
 30
0.0
 11
11.70866986143343
 21
19.87925557253272
 31
0.0
  0
LINE
  5
4B54
  8
OBJECT
 10
11.795643995519381
 20
19.87925557253272
 30
0.0
 11
11.70866986143343
 21
19.792281438446778
 31
0.0
  0
LINE
  5
4B5A
  8
DIM
 10
4.2761569284764169
 20
19.85337438243857
 30
0.0
 11
4.2761569284764169
 21
18.413392518840698
 31
0.0
  0
LINE
  5
4B5B
  8
DIM
 10
11.914156928476411
 20
19.85337438243856
 30
0.0
 11
11.914156928476411
 21
18.413392518840698
 31
0.0
  0
LINE
  5
4B5C
  8
DIM
 10
4.6361569284764181
 20
18.599392518840698
 30
0.0
 11
7.5401569284764172
 21
18.599392518840698
 31
0.0
  0
LINE
  5
4B5D
  8
DIM
 10
11.554156928476409
 20
18.599392518840698
 30
0.0
 11
8.6501569284764166
 21
18.599392518840698
 31
0.0
  0
SOLID
  5
4B5E
  8
DIM
 10
4.6361569284764181
 20
18.659392518840701
 30
0.0
 11
4.6361569284764181
 21
18.53939251884071
 31
0.0
 12
4.2761569284764169
 22
18.599392518840698
 32
0.0
 13
4.2761569284764169
 23
18.599392518840698
 33
0.0
  0
SOLID
  5
4B5F
  8
DIM
 10
11.554156928476409
 20
18.659392518840701
 30
0.0
 11
11.554156928476409
 21
18.53939251884071
 31
0.0
 12
11.914156928476411
 22
18.599392518840698
 32
0.0
 13
11.914156928476411
 23
18.599392518840698
 33
0.0
  0
TEXT
  5
4B60
  8
OBJECT
 10
7.720156928476416
 20
18.474392518840698
 30
0.0
 40
0.25
  1
7.638
 41
0.75
  0
LINE
  5
4B61
  8
DIM
 10
4.0326569284764178
 20
13.460782158868721
 30
0.0
 11
4.0326569284764178
 21
13.307798739631581
 31
0.0
  0
LINE
  5
4B62
  8
DIM
 10
12.15765692847641
 20
13.460782158868721
 30
0.0
 11
12.15765692847641
 21
13.307798739631581
 31
0.0
  0
LINE
  5
4B63
  8
DIM
 10
4.3926569284764181
 20
13.493798739631581
 30
0.0
 11
8.5639753537300827
 21
13.493798739631581
 31
0.0
  0
LINE
  5
4B64
  8
DIM
 10
11.79765692847641
 20
13.493798739631581
 30
0.0
 11
9.7989753537300821
 21
13.493798739631581
 31
0.0
  0
SOLID
  5
4B65
  8
DIM
 10
4.3926569284764181
 20
13.55379873963158
 30
0.0
 11
4.3926569284764181
 21
13.43379873963158
 31
0.0
 12
4.0326569284764178
 22
13.493798739631581
 32
0.0
 13
4.0326569284764178
 23
13.493798739631581
 33
0.0
  0
SOLID
  5
4B66
  8
DIM
 10
11.79765692847641
 20
13.55379873963158
 30
0.0
 11
11.79765692847641
 21
13.43379873963158
 31
0.0
 12
12.15765692847641
 22
13.493798739631581
 32
0.0
 13
12.15765692847641
 23
13.493798739631581
 33
0.0
  0
TEXT
  5
4B67
  8
OBJECT
 10
8.7439753537300824
 20
13.368798739631581
 30
0.0
 40
0.25
  1
*8.125
 41
0.75
  0
LINE
  5
4B68
  8
DIM
 10
10.237442141496301
 20
15.732532391307471
 30
0.0
 11
10.065969157531899
 21
15.732532391307471
 31
0.0
  0
LINE
  5
4B69
  8
DIM
 10
10.237442141496301
 20
8.0825323913074705
 30
0.0
 11
10.065969157531899
 21
8.0825323913074705
 31
0.0
  0
LINE
  5
4B6A
  8
DIM
 10
10.251969157531899
 20
15.37253239130747
 30
0.0
 11
10.251969157531899
 21
12.782829328040471
 31
0.0
  0
LINE
  5
4B6B
  8
DIM
 10
10.251969157531899
 20
8.4425323913074681
 30
0.0
 11
10.251969157531899
 21
12.17282932804047
 31
0.0
  0
SOLID
  5
4B6C
  8
DIM
 10
10.191969157531901
 20
15.37253239130747
 30
0.0
 11
10.3119691575319
 21
15.37253239130747
 31
0.0
 12
10.251969157531899
 22
15.732532391307471
 32
0.0
 13
10.251969157531899
 23
15.732532391307471
 33
0.0
  0
SOLID
  5
4B6D
  8
DIM
 10
10.191969157531901
 20
8.4425323913074681
 30
0.0
 11
10.3119691575319
 21
8.4425323913074681
 31
0.0
 12
10.251969157531899
 22
8.0825323913074705
 32
0.0
 13
10.251969157531899
 23
8.0825323913074705
 33
0.0
  0
TEXT
  5
4B6E
  8
OBJECT
 10
9.7988441575319012
 20
12.352829328040469
 30
0.0
 40
0.25
  1
*7.650
 41
0.75
  0
LINE
  5
4B6F
  8
DIM
 10
4.1631569284764209
 20
19.40203050553103
 30
0.0
 11
4.1631569284764209
 21
17.912330627630428
 31
0.0
  0
LINE
  5
4B70
  8
DIM
 10
12.027156928476421
 20
19.40203050553103
 30
0.0
 11
12.027156928476421
 21
17.912330627630428
 31
0.0
  0
LINE
  5
4B71
  8
DIM
 10
4.5231569284764221
 20
18.098330627630428
 30
0.0
 11
7.5401569284764216
 21
18.098330627630428
 31
0.0
  0
LINE
  5
4B72
  8
DIM
 10
11.66715692847642
 20
18.098330627630428
 30
0.0
 11
8.6501569284764201
 21
18.098330627630428
 31
0.0
  0
SOLID
  5
4B73
  8
DIM
 10
4.5231569284764221
 20
18.158330627630431
 30
0.0
 11
4.5231569284764221
 21
18.03833062763043
 31
0.0
 12
4.1631569284764209
 22
18.098330627630428
 32
0.0
 13
4.1631569284764209
 23
18.098330627630428
 33
0.0
  0
SOLID
  5
4B74
  8
DIM
 10
11.66715692847642
 20
18.158330627630431
 30
0.0
 11
11.66715692847642
 21
18.03833062763043
 31
0.0
 12
12.027156928476421
 22
18.098330627630428
 32
0.0
 13
12.027156928476421
 23
18.098330627630428
 33
0.0
  0
TEXT
  5
4B75
  8
OBJECT
 10
7.7201569284764222
 20
17.973330627630428
 30
0.0
 40
0.25
  1
7.864
 41
0.75
  0
LINE
  5
4B76
  8
DIM
 10
3.6076569284764188
 20
19.161333554386331
 30
0.0
 11
3.6076569284764188
 21
17.457583933589252
 31
0.0
  0
LINE
  5
4B77
  8
DIM
 10
12.582656928476419
 20
19.161333554386331
 30
0.0
 11
12.582656928476419
 21
17.457583933589252
 31
0.0
  0
LINE
  5
4B78
  8
DIM
 10
3.9676569284764192
 20
17.643583933589252
 30
0.0
 11
7.5401569284764198
 21
17.643583933589252
 31
0.0
  0
LINE
  5
4B79
  8
DIM
 10
12.22265692847642
 20
17.643583933589252
 30
0.0
 11
8.6501569284764201
 21
17.643583933589252
 31
0.0
  0
SOLID
  5
4B7A
  8
DIM
 10
3.9676569284764192
 20
17.70358393358925
 30
0.0
 11
3.9676569284764192
 21
17.583583933589249
 31
0.0
 12
3.6076569284764188
 22
17.643583933589252
 32
0.0
 13
3.6076569284764188
 23
17.643583933589252
 33
0.0
  0
SOLID
  5
4B7B
  8
DIM
 10
12.22265692847642
 20
17.70358393358925
 30
0.0
 11
12.22265692847642
 21
17.583583933589249
 31
0.0
 12
12.582656928476419
 22
17.643583933589252
 32
0.0
 13
12.582656928476419
 23
17.643583933589252
 33
0.0
  0
TEXT
  5
4B7C
  8
OBJECT
 10
7.7201569284764204
 20
17.518583933589252
 30
0.0
 40
0.25
  1
8.975
 41
0.75
  0
LINE
  5
4B7D
  8
DIM
 10
8.0951569284764453
 20
7.5325323913074591
 30
0.0
 11
8.0951569284764453
 21
6.944644036889553
 31
0.0
  0
LINE
  5
4B7E
  8
DIM
 10
11.638156928476411
 20
8.1215323913074702
 30
0.0
 11
11.638156928476411
 21
6.944644036889553
 31
0.0
  0
LINE
  5
4B7F
  8
DIM
 10
8.4551569284764447
 20
7.130644036889553
 30
0.0
 11
9.311656928476431
 21
7.130644036889553
 31
0.0
  0
LINE
  5
4B80
  8
DIM
 10
11.27815692847641
 20
7.130644036889553
 30
0.0
 11
10.42165692847643
 21
7.130644036889553
 31
0.0
  0
SOLID
  5
4B81
  8
DIM
 10
8.4551569284764447
 20
7.1906440368895526
 30
0.0
 11
8.4551569284764447
 21
7.0706440368895542
 31
0.0
 12
8.0951569284764453
 22
7.130644036889553
 32
0.0
 13
8.0951569284764453
 23
7.130644036889553
 33
0.0
  0
SOLID
  5
4B82
  8
DIM
 10
11.27815692847641
 20
7.1906440368895526
 30
0.0
 11
11.27815692847641
 21
7.0706440368895542
 31
0.0
 12
11.638156928476411
 22
7.130644036889553
 32
0.0
 13
11.638156928476411
 23
7.130644036889553
 33
0.0
  0
TEXT
  5
4B83
  8
OBJECT
 10
9.4916569284764307
 20
7.005644036889553
 30
0.0
 40
0.25
  1
3.543
 41
0.75
  0
LINE
  5
4B84
  8
DIM
 10
12.70765692847641
 20
11.907532391307461
 30
0.0
 11
13.463773312511149
 21
11.907532391307461
 31
0.0
  0
LINE
  5
4B85
  8
DIM
 10
8.2201569284764133
 20
10.53453239130747
 30
0.0
 11
13.463773312511149
 21
10.53453239130747
 31
0.0
  0
LINE
  5
4B86
  8
DIM
 10
13.27777331251116
 20
12.26753239130746
 30
0.0
 11
13.27777331251116
 21
12.62753239130747
 31
0.0
  0
LINE
  5
4B87
  8
DIM
 10
13.277773312511149
 20
10.174532391307469
 30
0.0
 11
13.277773312511149
 21
9.8145323913074698
 31
0.0
  0
SOLID
  5
4B88
  8
DIM
 10
13.217773312511159
 20
12.26753239130746
 30
0.0
 11
13.33777331251116
 21
12.26753239130746
 31
0.0
 12
13.277773312511149
 22
11.907532391307461
 32
0.0
 13
13.277773312511149
 23
11.907532391307461
 33
0.0
  0
SOLID
  5
4B89
  8
DIM
 10
13.217773312511151
 20
10.174532391307469
 30
0.0
 11
13.33777331251115
 21
10.174532391307469
 31
0.0
 12
13.277773312511149
 22
10.53453239130747
 32
0.0
 13
13.277773312511149
 23
10.53453239130747
 33
0.0
  0
TEXT
  5
4B8A
  8
OBJECT
 10
12.934023312511149
 20
11.096032391307469
 30
0.0
 40
0.25
  1
1.373
 41
0.75
  0
LINE
  5
4B8B
  8
DIM
 10
8.0951569284764453
 20
16.28253239130748
 30
0.0
 11
8.0951569284764453
 21
16.902017231086919
 31
0.0
  0
LINE
  5
4B8C
  8
DIM
 10
11.992656928476411
 20
12.03253239130747
 30
0.0
 11
11.992656928476411
 21
16.902017231086919
 31
0.0
  0
LINE
  5
4B8D
  8
DIM
 10
8.4551569284764447
 20
16.716017231086919
 30
0.0
 11
9.48890692847643
 21
16.716017231086919
 31
0.0
  0
LINE
  5
4B8E
  8
DIM
 10
11.632656928476409
 20
16.716017231086919
 30
0.0
 11
10.598906928476429
 21
16.716017231086919
 31
0.0
  0
SOLID
  5
4B8F
  8
DIM
 10
8.4551569284764447
 20
16.776017231086922
 30
0.0
 11
8.4551569284764447
 21
16.656017231086921
 31
0.0
 12
8.0951569284764453
 22
16.716017231086919
 32
0.0
 13
8.0951569284764453
 23
16.716017231086919
 33
0.0
  0
SOLID
  5
4B90
  8
DIM
 10
11.632656928476409
 20
16.776017231086922
 30
0.0
 11
11.632656928476409
 21
16.656017231086921
 31
0.0
 12
11.992656928476411
 22
16.716017231086919
 32
0.0
 13
11.992656928476411
 23
16.716017231086919
 33
0.0
  0
TEXT
  5
4B91
  8
OBJECT
 10
9.6689069284764297
 20
16.591017231086919
 30
0.0
 40
0.25
  1
3.898
 41
0.75
  0
LINE
  5
4B92
  8
DIM
 10
4.3401569284764143
 20
2.513876482959545
 30
0.0
 11
4.3401569284764143
 21
1.3546985973349941
 31
0.0
  0
LINE
  5
4B93
  8
DIM
 10
11.850156928476419
 20
2.513876482959545
 30
0.0
 11
11.850156928476419
 21
1.3546985973349941
 31
0.0
  0
LINE
  5
4B94
  8
DIM
 10
4.7001569284764138
 20
1.540698597334994
 30
0.0
 11
7.5870319284764172
 21
1.540698597334994
 31
0.0
  0
LINE
  5
4B95
  8
DIM
 10
11.49015692847642
 20
1.540698597334994
 30
0.0
 11
8.6032819284764166
 21
1.540698597334994
 31
0.0
  0
SOLID
  5
4B96
  8
DIM
 10
4.7001569284764138
 20
1.6006985973349941
 30
0.0
 11
4.7001569284764138
 21
1.480698597334994
 31
0.0
 12
4.3401569284764143
 22
1.540698597334994
 32
0.0
 13
4.3401569284764143
 23
1.540698597334994
 33
0.0
  0
SOLID
  5
4B97
  8
DIM
 10
11.49015692847642
 20
1.6006985973349941
 30
0.0
 11
11.49015692847642
 21
1.480698597334994
 31
0.0
 12
11.850156928476419
 22
1.540698597334994
 32
0.0
 13
11.850156928476419
 23
1.540698597334994
 33
0.0
  0
TEXT
  5
4B98
  8
OBJECT
 10
7.767031928476416
 20
1.415698597334994
 30
0.0
 40
0.25
  1
7.510
 41
0.75
  0
TEXT
  5
4B99
  8
OBJECT
 10
6.4609758203933652
 20
0.7619254560626559
 30
0.0
 40
0.25
  1
REMOVABLE REAR PANEL
 41
0.75
  0
TEXT
  5
4B9A
  8
OBJECT
 10
6.4609758203933652
 20
0.3452587893959892
 30
0.0
 40
0.25
  1
0.090 THICK (TEXTURED ON ONE SIDE)
 41
0.75
  0
TEXT
  5
4B9B
  8
TEXT
 10
0.4156666666666726
 20
30.440158391280161
 30
0.0
 40
0.25
  1
NAME
  7
TXT
 72
     1
 11
0.8740000000000058
 21
30.440158391280161
 31
0.0
  0
TEXT
  5
4B9C
  8
TEXT
 10
0.4156666666666726
 20
30.856825057946821
 30
0.0
 40
0.25
  1
PART
  7
TXT
 72
     1
 11
0.8740000000000058
 21
30.856825057946821
 31
0.0
  0
TEXT
  5
4B9D
  8
TEXT
 10
11.22399999999999
 20
30.440158391280161
 30
0.0
 40
0.25
  1
No.
  7
TXT
 72
     1
 11
11.47399999999999
 21
30.440158391280161
 31
0.0
  0
TEXT
  5
4B9E
  8
TEXT
 10
11.015666666666659
 20
30.856825057946821
 30
0.0
 40
0.25
  1
PART
  7
TXT
 72
     1
 11
11.47399999999999
 21
30.856825057946821
 31
0.0
  0
LINE
  5
4B9F
  8
TITLE
 10
12.224
 20
31.196000000000002
 30
0.0
 11
12.224
 21
30.359999999999999
 31
0.0
  0
LINE
  5
4BA0
  8
TITLE
 10
10.724
 20
31.196000000000002
 30
0.0
 11
10.724
 21
30.359999999999999
 31
0.0
  0
LINE
  5
4BA1
  8
TITLE
 10
10.6
 20
31.196000000000002
 30
0.0
 11
10.6
 21
30.359999999999999
 31
0.0
  0
LINE
  5
4BA2
  8
TITLE
 10
1.624000000000005
 20
30.359999999999999
 30
0.0
 11
1.6240000000000021
 21
31.196000000000002
 31
0.0
  0
LINE
  5
4BA3
  8
TITLE
 10
0.1240000000000023
 20
30.359999999999999
 30
0.0
 11
21.076000000000001
 21
30.359999999999999
 31
0.0
  0
LINE
  5
4BA4
  8
TITLE
 10
21.076000000000001
 20
0.1239999999999988
 30
0.0
 11
0.1239999999999952
 21
0.1240000000000023
 31
0.0
  0
LINE
  5
4BA5
  8
TITLE
 10
21.076000000000001
 20
31.196000000000002
 30
0.0
 11
21.076000000000001
 21
0.1239999999999988
 31
0.0
  0
LINE
  5
4BA6
  8
TITLE
 10
0.1240000000000023
 20
31.196000000000002
 30
0.0
 11
21.076000000000001
 21
31.196000000000002
 31
0.0
  0
LINE
  5
4BA7
  8
TITLE
 10
0.1239999999999952
 20
0.1240000000000023
 30
0.0
 11
0.1240000000000023
 21
31.196000000000002
 31
0.0
  0
LINE
  5
4BA8
  8
TITLE
 10
0.0
 20
0.0
 30
0.0
 11
0.0
 21
31.32
 31
0.0
  0
LINE
  5
4BA9
  8
TITLE
 10
21.199999999999999
 20
-0.0000000000000036
 30
0.0
 11
0.0
 21
0.0
 31
0.0
  0
LINE
  5
4BAA
  8
TITLE
 10
21.199999999999999
 20
31.31999999999999
 30
0.0
 11
21.199999999999999
 21
-0.0000000000000036
 31
0.0
  0
LINE
  5
4BAB
  8
TITLE
 10
0.0
 20
31.32
 30
0.0
 11
21.199999999999999
 21
31.31999999999999
 31
0.0
  0
LINE
  5
4BAC
  8
DIM
 10
8.0951569284764453
 20
16.28253239130748
 30
0.0
 11
8.0951569284764453
 21
16.902017231086919
 31
0.0
  0
LINE
  5
4BAD
  8
DIM
 10
4.197656928476416
 20
12.03253239130747
 30
0.0
 11
4.197656928476416
 21
16.902017231086919
 31
0.0
  0
LINE
  5
4BAE
  8
DIM
 10
7.7351569284764441
 20
16.716017231086919
 30
0.0
 11
6.7014069284764304
 21
16.716017231086919
 31
0.0
  0
LINE
  5
4BAF
  8
DIM
 10
4.5576569284764163
 20
16.716017231086919
 30
0.0
 11
5.5914069284764301
 21
16.716017231086919
 31
0.0
  0
SOLID
  5
4BB0
  8
DIM
 10
7.7351569284764441
 20
16.776017231086922
 30
0.0
 11
7.7351569284764441
 21
16.656017231086921
 31
0.0
 12
8.0951569284764453
 22
16.716017231086919
 32
0.0
 13
8.0951569284764453
 23
16.716017231086919
 33
0.0
  0
SOLID
  5
4BB1
  8
DIM
 10
4.5576569284764163
 20
16.776017231086922
 30
0.0
 11
4.5576569284764163
 21
16.656017231086921
 31
0.0
 12
4.197656928476416
 22
16.716017231086919
 32
0.0
 13
4.197656928476416
 23
16.716017231086919
 33
0.0
  0
TEXT
  5
4BB2
  8
OBJECT
 10
5.7714069284764298
 20
16.591017231086919
 30
0.0
 40
0.25
  1
3.898
 41
0.75
  0
LINE
  5
4BB3
  8
HIDDEN
 10
3.9631569284764132
 20
3.8248764829595419
 30
0.0
 11
3.963156928476415
 21
4.8248764829595423
 31
0.0
  0
LINE
  5
4BB4
  8
HIDDEN
 10
3.963156928476415
 20
4.8248764829595423
 30
0.0
 11
4.0531569284764126
 21
4.8248764829595423
 31
0.0
  0
LINE
  5
4BB5
  8
HIDDEN
 10
4.0531569284764126
 20
4.8248764829595423
 30
0.0
 11
4.0531569284764126
 21
3.8248764829595419
 31
0.0
  0
LINE
  5
4BB6
  8
HIDDEN
 10
4.1331569284764056
 20
2.0768764829595479
 30
0.0
 11
4.1331569284764056
 21
3.6088764829595412
 31
0.0
  0
LINE
  5
4BB7
  8
HIDDEN
 10
4.1331569284764056
 20
3.6088764829595412
 30
0.0
 11
3.883156928476406
 21
3.6088764829595412
 31
0.0
  0
LINE
  5
4BB8
  8
HIDDEN
 10
3.883156928476406
 20
3.6088764829595412
 30
0.0
 11
3.883156928476406
 21
2.2333810252948578
 31
0.0
  0
LINE
  5
4BB9
  8
HIDDEN
 10
4.1756569284764806
 20
2.1948764829595531
 30
0.0
 11
4.1756569284764096
 21
3.8248764829595419
 31
0.0
  0
LINE
  5
4BBA
  8
HIDDEN
 10
4.1756569284764096
 20
3.8248764829595419
 30
0.0
 11
3.8406569284764109
 21
3.824876482959541
 31
0.0
  0
LINE
  5
4BBB
  8
HIDDEN
 10
3.8406569284764109
 20
3.824876482959541
 30
0.0
 11
3.8406569284764092
 21
2.4502582256548768
 31
0.0
  0
LINE
  5
4BBC
  8
DIM
 10
4.2151569284764143
 20
2.638876482959545
 30
0.0
 11
2.7988860805691109
 21
2.6388764829595459
 31
0.0
  0
LINE
  5
4BBD
  8
DIM
 10
4.2151569284764143
 20
3.888876482959545
 30
0.0
 11
2.7988860805691109
 21
3.8888764829595459
 31
0.0
  0
LINE
  5
4BBE
  8
DIM
 10
2.9848860805691109
 20
2.278876482959546
 30
0.0
 11
2.9848860805691109
 21
1.9188764829595459
 31
0.0
  0
LINE
  5
4BBF
  8
DIM
 10
2.9848860805691109
 20
4.2488764829595462
 30
0.0
 11
2.9848860805691109
 21
4.6088764829595448
 31
0.0
  0
SOLID
  5
4BC0
  8
DIM
 10
2.9248860805691108
 20
2.278876482959546
 30
0.0
 11
3.0448860805691109
 21
2.278876482959546
 31
0.0
 12
2.9848860805691109
 22
2.6388764829595459
 32
0.0
 13
2.9848860805691109
 23
2.6388764829595459
 33
0.0
  0
SOLID
  5
4BC1
  8
DIM
 10
2.9248860805691108
 20
4.2488764829595462
 30
0.0
 11
3.0448860805691109
 21
4.2488764829595462
 31
0.0
 12
2.9848860805691109
 22
3.8888764829595459
 32
0.0
 13
2.9848860805691109
 23
3.8888764829595459
 33
0.0
  0
TEXT
  5
4BC2
  8
OBJECT
 10
2.65676108056911
 20
3.1388764829595459
 30
0.0
 40
0.25
  1
1.250
 41
0.75
  0
SOLID
  5
4BC3
  8
DIM
 10
5.5571834121602954
 20
2.8025256866902581
 30
0.0
 11
5.5601942911360993
 21
3.1674790187860111
 31
0.0
 12
5.67570940521707
 22
2.8212763925411188
 32
0.0
 13
5.67570940521707
 23
2.8212763925411188
 33
0.0
  0
POLYLINE
  5
4BC4
  8
DIM
 66
     1
 10
0.0
 20
0.0
 30
0.0
  0
VERTEX
  5
4C8B
  8
DIM
 10
5.6164464086886818
 20
2.8119010396156878
 30
0.0
  0
VERTEX
  5
4C8C
  8
DIM
 10
5.9209758203933651
 20
0.8869254560626558
 30
0.0
  0
VERTEX
  5
4C8D
  8
DIM
 10
6.2809758203933654
 20
0.8869254560626558
 30
0.0
  0
SEQEND
  5
4C8E
  8
DIM
  0
LINE
  5
4BC5
  8
DIM
 10
8.0951569284764453
 20
7.5325323913074591
 30
0.0
 11
8.0951569284764453
 21
6.944644036889553
 31
0.0
  0
LINE
  5
4BC6
  8
DIM
 10
4.5521569284764141
 20
8.1215323913074702
 30
0.0
 11
4.5521569284764141
 21
6.944644036889553
 31
0.0
  0
LINE
  5
4BC7
  8
DIM
 10
7.7351569284764441
 20
7.130644036889553
 30
0.0
 11
6.8786569284764294
 21
7.130644036889553
 31
0.0
  0
LINE
  5
4BC8
  8
DIM
 10
4.9121569284764144
 20
7.130644036889553
 30
0.0
 11
5.7686569284764291
 21
7.130644036889553
 31
0.0
  0
SOLID
  5
4BC9
  8
DIM
 10
7.7351569284764441
 20
7.1906440368895526
 30
0.0
 11
7.7351569284764441
 21
7.0706440368895542
 31
0.0
 12
8.0951569284764453
 22
7.130644036889553
 32
0.0
 13
8.0951569284764453
 23
7.130644036889553
 33
0.0
  0
SOLID
  5
4BCA
  8
DIM
 10
4.9121569284764144
 20
7.1906440368895526
 30
0.0
 11
4.9121569284764144
 21
7.0706440368895542
 31
0.0
 12
4.5521569284764141
 22
7.130644036889553
 32
0.0
 13
4.5521569284764141
 23
7.130644036889553
 33
0.0
  0
TEXT
  5
4BCB
  8
OBJECT
 10
5.9486569284764288
 20
7.005644036889553
 30
0.0
 40
0.25
  1
3.543
 41
0.75
  0
SOLID
  5
4BCC
  8
DIM
 10
5.4307782282890802
 20
22.505831403873628
 30
0.0
 11
5.6773452020852337
 21
22.236750138392349
 31
0.0
 12
5.3568365732030516
 22
22.411318803427239
 32
0.0
 13
5.3568365732030516
 23
22.411318803427239
 33
0.0
  0
POLYLINE
  5
4BCD
  8
DIM
 66
     1
 10
0.0
 20
0.0
 30
0.0
  0
VERTEX
  5
4C8F
  8
DIM
 10
5.3938074007460663
 20
22.458575103650428
 30
0.0
  0
VERTEX
  5
4C90
  8
DIM
 10
3.3446634440793588
 20
24.061716853531859
 30
0.0
  0
VERTEX
  5
4C91
  8
DIM
 10
2.9846634440793589
 20
24.061716853531859
 30
0.0
  0
SEQEND
  5
4C92
  8
DIM
  0
TEXT
  5
4BCE
  8
OBJECT
 10
1.117163444079359
 20
23.936716853531859
 30
0.0
 40
0.25
  1
REMOVABLE
 41
0.75
  0
TEXT
  5
4BCF
  8
OBJECT
 10
1.429663444079359
 20
23.520050186865191
 30
0.0
 40
0.25
  1
ALUMINUM
 41
0.75
  0
TEXT
  5
4BD0
  8
OBJECT
 10
1.929663444079359
 20
23.10338352019853
 30
0.0
 40
0.25
  1
PANEL
 41
0.75
  0
TEXT
  5
4BD1
  8
OBJECT
 10
1.242163444079359
 20
22.686716853531859
 30
0.0
 40
0.25
  1
(PRESSURE
 41
0.75
  0
TEXT
  5
4BD2
  8
OBJECT
 10
1.242163444079359
 20
22.270050186865191
 30
0.0
 40
0.25
  1
SENSITIVE
 41
0.75
  0
TEXT
  5
4BD3
  8
OBJECT
 10
1.554663444079359
 20
21.85338352019853
 30
0.0
 40
0.25
  1
TAPE ON
 41
0.75
  0
TEXT
  5
4BD4
  8
OBJECT
 10
1.304663444079359
 20
21.436716853531859
 30
0.0
 40
0.25
  1
ONE SIDE)
 41
0.75
  0
LINE
  5
4BD5
  8
HIDDEN
 10
17.162248143685272
 20
15.639532391307471
 30
0.0
 11
15.63024814368527
 21
15.639532391307471
 31
0.0
  0
LINE
  5
4BD6
  8
HIDDEN
 10
15.63024814368527
 20
15.639532391307471
 30
0.0
 11
15.63024814368527
 21
15.889532391307471
 31
0.0
  0
LINE
  5
4BD7
  8
HIDDEN
 10
15.63024814368527
 20
15.889532391307471
 30
0.0
 11
16.998243601349959
 21
15.889532391307471
 31
0.0
  0
LINE
  5
4BD8
  8
OBJECT
 10
16.298248143685271
 20
15.59703239130747
 30
0.0
 11
15.414248143685271
 21
15.59703239130747
 31
0.0
  0
LINE
  5
4BD9
  8
OBJECT
 10
15.414248143685271
 20
15.59703239130747
 30
0.0
 11
15.414248143685271
 21
15.93203239130747
 31
0.0
  0
LINE
  5
4BDA
  8
OBJECT
 10
15.414248143685271
 20
15.93203239130747
 30
0.0
 11
16.298248143685271
 21
15.93203239130747
 31
0.0
  0
SOLID
  5
4BDB
  8
DIM
 10
12.021649310186559
 20
15.893139976073
 30
0.0
 11
11.763156928476411
 21
15.635493534999551
 31
0.0
 12
11.924115741097321
 22
15.96304850846151
 32
0.0
 13
11.924115741097321
 23
15.96304850846151
 33
0.0
  0
POLYLINE
  5
4BDC
  8
DIM
 66
     1
 10
0.0
 20
0.0
 30
0.0
  0
VERTEX
  5
4C93
  8
DIM
 10
11.972882525641941
 20
15.92809424226726
 30
0.0
  0
VERTEX
  5
4C94
  8
DIM
 10
12.83464712040859
 20
17.130393500607081
 30
0.0
  0
VERTEX
  5
4C95
  8
DIM
 10
13.19464712040859
 20
17.130393500607081
 30
0.0
  0
SEQEND
  5
4C96
  8
DIM
  0
LINE
  5
4BDD
  8
DIM
 10
17.044248143685259
 20
8.8460969211239444
 30
0.0
 11
17.044248143685259
 21
8.7777760022050657
 31
0.0
  0
LINE
  5
4BDE
  8
DIM
 10
16.298248143685271
 20
8.8460969211239444
 30
0.0
 11
16.298248143685271
 21
8.7777760022050657
 31
0.0
  0
LINE
  5
4BDF
  8
DIM
 10
17.404248143685269
 20
8.9637760022050657
 30
0.0
 11
17.764248143685261
 21
8.9637760022050657
 31
0.0
  0
LINE
  5
4BE0
  8
DIM
 10
15.93824814368527
 20
8.9637760022050657
 30
0.0
 11
15.57824814368527
 21
8.9637760022050657
 31
0.0
  0
SOLID
  5
4BE1
  8
DIM
 10
17.404248143685269
 20
9.0237760022050661
 30
0.0
 11
17.404248143685269
 21
8.9037760022050652
 31
0.0
 12
17.044248143685259
 22
8.9637760022050657
 32
0.0
 13
17.044248143685259
 23
8.9637760022050657
 33
0.0
  0
SOLID
  5
4BE2
  8
DIM
 10
15.93824814368527
 20
9.0237760022050661
 30
0.0
 11
15.93824814368527
 21
8.9037760022050652
 31
0.0
 12
16.298248143685271
 22
8.9637760022050657
 32
0.0
 13
16.298248143685271
 23
8.9637760022050657
 33
0.0
  0
TEXT
  5
4BE3
  8
OBJECT
 10
14.679498143685271
 20
8.8387760022050657
 30
0.0
 40
0.25
  1
0.746
 41
0.75
  0
LINE
  5
4BE4
  8
DIM
 10
16.84424814368527
 20
10.28802340429311
 30
0.0
 11
16.84424814368527
 21
9.7914378448698969
 31
0.0
  0
LINE
  5
4BE5
  8
DIM
 10
17.044248143685259
 20
9.8920198124856569
 30
0.0
 11
17.044248143685259
 21
9.7914378448698969
 31
0.0
  0
LINE
  5
4BE6
  8
DIM
 10
16.484248143685271
 20
9.9774378448698968
 30
0.0
 11
16.124248143685271
 21
9.9774378448698968
 31
0.0
  0
LINE
  5
4BE7
  8
DIM
 10
17.404248143685269
 20
9.9774378448698968
 30
0.0
 11
17.764248143685261
 21
9.9774378448698968
 31
0.0
  0
SOLID
  5
4BE8
  8
DIM
 10
16.484248143685271
 20
10.03743784486989
 30
0.0
 11
16.484248143685271
 21
9.9174378448698963
 31
0.0
 12
16.84424814368527
 22
9.9774378448698968
 32
0.0
 13
16.84424814368527
 23
9.9774378448698968
 33
0.0
  0
SOLID
  5
4BE9
  8
DIM
 10
17.404248143685269
 20
10.03743784486989
 30
0.0
 11
17.404248143685269
 21
9.9174378448698963
 31
0.0
 12
17.044248143685259
 22
9.9774378448698968
 32
0.0
 13
17.044248143685259
 23
9.9774378448698968
 33
0.0
  0
TEXT
  5
4BEA
  8
OBJECT
 10
17.944248143685261
 20
9.8524378448698968
 30
0.0
 40
0.25
  1
0.200
 41
0.75
  0
LINE
  5
4BEB
  8
HIDDEN
 10
12.05715692847642
 20
2.0768764829595479
 30
0.0
 11
12.05715692847642
 21
3.6088764829595412
 31
0.0
  0
LINE
  5
4BEC
  8
HIDDEN
 10
12.05715692847642
 20
3.6088764829595412
 30
0.0
 11
12.30715692847642
 21
3.6088764829595412
 31
0.0
  0
LINE
  5
4BED
  8
HIDDEN
 10
12.30715692847642
 20
3.6088764829595412
 30
0.0
 11
12.30715692847642
 21
2.2333810252948578
 31
0.0
  0
LINE
  5
4BEE
  8
HIDDEN
 10
12.01465692847634
 20
2.1948764829595531
 30
0.0
 11
12.014656928476411
 21
3.8248764829595419
 31
0.0
  0
LINE
  5
4BEF
  8
HIDDEN
 10
12.014656928476411
 20
3.8248764829595419
 30
0.0
 11
12.34965692847641
 21
3.824876482959541
 31
0.0
  0
LINE
  5
4BF0
  8
HIDDEN
 10
12.34965692847641
 20
3.824876482959541
 30
0.0
 11
12.34965692847641
 21
2.4502582256548768
 31
0.0
  0
LINE
  5
4BF1
  8
HIDDEN
 10
12.227156928476409
 20
3.8248764829595419
 30
0.0
 11
12.227156928476409
 21
4.8248764829595423
 31
0.0
  0
LINE
  5
4BF2
  8
HIDDEN
 10
12.227156928476409
 20
4.8248764829595423
 30
0.0
 11
12.13715692847641
 21
4.8248764829595423
 31
0.0
  0
LINE
  5
4BF3
  8
HIDDEN
 10
12.13715692847641
 20
4.8248764829595423
 30
0.0
 11
12.13715692847641
 21
3.8248764829595419
 31
0.0
  0
LINE
  5
4BF4
  8
DIM
 10
12.70765692847641
 20
11.907532391307461
 30
0.0
 11
14.126416296244731
 21
11.907532391307461
 31
0.0
  0
LINE
  5
4BF5
  8
DIM
 10
11.763156928476411
 20
8.2465323913074702
 30
0.0
 11
14.126416296244731
 21
8.2465323913074702
 31
0.0
  0
LINE
  5
4BF6
  8
DIM
 10
13.940416296244731
 20
11.54753239130747
 30
0.0
 11
13.940416296244731
 21
10.38203239130746
 31
0.0
  0
LINE
  5
4BF7
  8
DIM
 10
13.940416296244731
 20
8.6065323913074696
 30
0.0
 11
13.940416296244731
 21
9.7720323913074694
 31
0.0
  0
SOLID
  5
4BF8
  8
DIM
 10
13.88041629624473
 20
11.54753239130747
 30
0.0
 11
14.00041629624473
 21
11.54753239130747
 31
0.0
 12
13.940416296244731
 22
11.907532391307461
 32
0.0
 13
13.940416296244731
 23
11.907532391307461
 33
0.0
  0
SOLID
  5
4BF9
  8
DIM
 10
13.88041629624473
 20
8.6065323913074696
 30
0.0
 11
14.00041629624473
 21
8.6065323913074696
 31
0.0
 12
13.940416296244731
 22
8.2465323913074702
 32
0.0
 13
13.940416296244731
 23
8.2465323913074702
 33
0.0
  0
TEXT
  5
4BFA
  8
OBJECT
 10
13.596666296244731
 20
9.9520323913074726
 30
0.0
 40
0.25
  1
3.661
 41
0.75
  0
LINE
  5
4BFB
  8
DIM
 10
12.117656928476411
 20
11.90753239130747
 30
0.0
 11
14.126416296244731
 21
11.90753239130747
 31
0.0
  0
LINE
  5
4BFC
  8
DIM
 10
11.763156928476411
 20
15.568532391307469
 30
0.0
 11
14.126416296244731
 21
15.568532391307469
 31
0.0
  0
LINE
  5
4BFD
  8
DIM
 10
13.940416296244731
 20
12.267532391307469
 30
0.0
 11
13.940416296244731
 21
13.433032391307471
 31
0.0
  0
LINE
  5
4BFE
  8
DIM
 10
13.940416296244731
 20
15.208532391307459
 30
0.0
 11
13.940416296244731
 21
14.04303239130747
 31
0.0
  0
SOLID
  5
4BFF
  8
DIM
 10
13.88041629624473
 20
12.267532391307469
 30
0.0
 11
14.00041629624474
 21
12.267532391307469
 31
0.0
 12
13.940416296244731
 22
11.90753239130747
 32
0.0
 13
13.940416296244731
 23
11.90753239130747
 33
0.0
  0
SOLID
  5
4C00
  8
DIM
 10
13.88041629624473
 20
15.208532391307459
 30
0.0
 11
14.00041629624474
 21
15.208532391307459
 31
0.0
 12
13.940416296244731
 22
15.568532391307469
 32
0.0
 13
13.940416296244731
 23
15.568532391307469
 33
0.0
  0
TEXT
  5
4C01
  8
OBJECT
 10
13.596666296244731
 20
13.61303239130747
 30
0.0
 40
0.25
  1
3.661
 41
0.75
  0
LINE
  5
4C02
  8
HIDDEN
 10
17.044248143685259
 20
8.3715323913074613
 30
0.0
 11
16.84424814368527
 21
8.3680413783218182
 31
0.0
  0
LINE
  5
4C03
  8
HIDDEN
 10
16.84424814368527
 20
8.3680413783218182
 30
0.0
 11
16.84424814368527
 21
8.2180323913075206
 31
0.0
  0
LINE
  5
4C04
  8
HIDDEN
 10
17.162248143685272
 20
8.1755323913074722
 30
0.0
 11
16.479248143685268
 21
8.1755323913074722
 31
0.0
  0
LINE
  5
4C05
  8
HIDDEN
 10
16.479248143685268
 20
8.1755323913074722
 30
0.0
 11
16.479248143685268
 21
7.9255323913074722
 31
0.0
  0
LINE
  5
4C06
  8
HIDDEN
 10
16.479248143685268
 20
7.9255323913074722
 30
0.0
 11
16.998243601349959
 21
7.9255323913074722
 31
0.0
  0
LINE
  5
4C07
  8
HIDDEN
 10
16.84424814368527
 20
10.487532391307459
 30
0.0
 11
17.07924814368527
 21
10.48753239130747
 31
0.0
  0
LINE
  5
4C08
  8
HIDDEN
 10
17.07924814368527
 20
10.48753239130747
 30
0.0
 11
17.07924814368527
 21
10.581532391307469
 31
0.0
  0
LINE
  5
4C09
  8
HIDDEN
 10
17.07924814368527
 20
10.581532391307469
 30
0.0
 11
16.84424814368527
 21
10.581532391307469
 31
0.0
  0
LINE
  5
4C0A
  8
HIDDEN
 10
17.044248143685259
 20
10.40953239130747
 30
0.0
 11
16.84424814368527
 21
10.41302340429311
 31
0.0
  0
LINE
  5
4C0B
  8
HIDDEN
 10
16.84424814368527
 20
10.41302340429311
 30
0.0
 11
16.84424814368527
 21
10.65604137832182
 31
0.0
  0
LINE
  5
4C0C
  8
HIDDEN
 10
16.84424814368527
 20
10.65604137832182
 30
0.0
 11
17.044248143685259
 21
10.65953239130747
 31
0.0
  0
LINE
  5
4C0D
  8
HIDDEN
 10
17.044248143685259
 20
11.78253239130747
 30
0.0
 11
16.84424814368527
 21
11.786023404293109
 31
0.0
  0
LINE
  5
4C0E
  8
HIDDEN
 10
16.84424814368527
 20
11.786023404293109
 30
0.0
 11
16.84424814368527
 21
12.02904137832183
 31
0.0
  0
LINE
  5
4C0F
  8
HIDDEN
 10
16.84424814368527
 20
12.02904137832183
 30
0.0
 11
17.044248143685259
 21
12.03253239130747
 31
0.0
  0
LINE
  5
4C10
  8
HIDDEN
 10
16.84424814368527
 20
11.860532391307469
 30
0.0
 11
17.07924814368527
 21
11.860532391307469
 31
0.0
  0
LINE
  5
4C11
  8
HIDDEN
 10
17.07924814368527
 20
11.860532391307469
 30
0.0
 11
17.07924814368527
 21
11.95453239130747
 31
0.0
  0
LINE
  5
4C12
  8
HIDDEN
 10
17.07924814368527
 20
11.95453239130747
 30
0.0
 11
16.84424814368527
 21
11.95453239130747
 31
0.0
  0
LINE
  5
4C13
  8
HIDDEN
 10
17.044248143685259
 20
15.44353239130748
 30
0.0
 11
16.84424814368527
 21
15.44702340429312
 31
0.0
  0
LINE
  5
4C14
  8
HIDDEN
 10
16.84424814368527
 20
15.44702340429312
 30
0.0
 11
16.84424814368527
 21
15.59703239130741
 31
0.0
  0
LINE
  5
4C15
  8
DIM
 10
17.916617920404072
 20
22.221842541400679
 30
0.0
 11
17.916617920404072
 21
22.697646697802149
 31
0.0
  0
LINE
  5
4C16
  8
DIM
 10
16.43330251057159
 20
19.58048412146988
 30
0.0
 11
16.43330251057159
 21
22.697646697802149
 31
0.0
  0
LINE
  5
4C17
  8
DIM
 10
18.276617920404071
 20
22.511646697802149
 30
0.0
 11
18.636617920404071
 21
22.511646697802149
 31
0.0
  0
LINE
  5
4C18
  8
DIM
 10
16.07330251057159
 20
22.511646697802149
 30
0.0
 11
15.394604428576571
 21
22.511646697802149
 31
0.0
  0
SOLID
  5
4C19
  8
DIM
 10
18.276617920404071
 20
22.571646697802141
 30
0.0
 11
18.276617920404071
 21
22.45164669780215
 31
0.0
 12
17.916617920404072
 22
22.511646697802149
 32
0.0
 13
17.916617920404072
 23
22.511646697802149
 33
0.0
  0
SOLID
  5
4C1A
  8
DIM
 10
16.07330251057159
 20
22.571646697802141
 30
0.0
 11
16.07330251057159
 21
22.45164669780215
 31
0.0
 12
16.43330251057159
 22
22.511646697802149
 32
0.0
 13
16.43330251057159
 23
22.511646697802149
 33
0.0
  0
TEXT
  5
4C1B
  8
OBJECT
 10
14.52710442857656
 20
22.386646697802139
 30
0.0
 40
0.25
  1
1.483
 41
0.75
  0
LINE
  5
4C1C
  8
DIM
 10
17.916617920404072
 20
26.762824567371968
 30
0.0
 11
17.916617920404072
 21
26.229256021185339
 31
0.0
  0
LINE
  5
4C1D
  8
DIM
 10
15.352617920404059
 20
26.48243783007657
 30
0.0
 11
15.352617920404059
 21
26.229256021185339
 31
0.0
  0
LINE
  5
4C1E
  8
DIM
 10
17.556617920404069
 20
26.415256021185339
 30
0.0
 11
17.189617920404061
 21
26.415256021185339
 31
0.0
  0
LINE
  5
4C1F
  8
DIM
 10
15.71261792040406
 20
26.415256021185339
 30
0.0
 11
16.079617920404068
 21
26.415256021185339
 31
0.0
  0
SOLID
  5
4C20
  8
DIM
 10
17.556617920404069
 20
26.475256021185341
 30
0.0
 11
17.556617920404069
 21
26.35525602118534
 31
0.0
 12
17.916617920404072
 22
26.415256021185339
 32
0.0
 13
17.916617920404072
 23
26.415256021185339
 33
0.0
  0
SOLID
  5
4C21
  8
DIM
 10
15.71261792040406
 20
26.475256021185341
 30
0.0
 11
15.71261792040406
 21
26.35525602118534
 31
0.0
 12
15.352617920404059
 22
26.415256021185339
 32
0.0
 13
15.352617920404059
 23
26.415256021185339
 33
0.0
  0
TEXT
  5
4C22
  8
OBJECT
 10
16.259617920404061
 20
26.290256021185339
 30
0.0
 40
0.25
  1
2.564
 41
0.75
  0
LINE
  5
4C23
  8
DIM
 10
15.523852227144999
 20
24.61323297971321
 30
0.0
 11
15.418888839906529
 21
25.208509929484279
 31
0.0
  0
LINE
  5
4C24
  8
DIM
 10
18.094911898195701
 20
25.06658016873088
 30
0.0
 11
17.98994851095723
 21
25.661857118501949
 31
0.0
  0
LINE
  5
4C25
  8
DIM
 10
15.80571819203697
 20
25.087849031384099
 30
0.0
 11
16.244217236477919
 21
25.16516824393392
 31
0.0
  0
LINE
  5
4C26
  8
DIM
 10
17.667716280918881
 20
25.416169532481579
 30
0.0
 11
17.229217236477918
 21
25.338850319931758
 31
0.0
  0
SOLID
  5
4C27
  8
DIM
 10
15.79529930137695
 20
25.146937496564831
 30
0.0
 11
15.816137082696979
 21
25.028760566203371
 31
0.0
 12
15.45118740095257
 22
25.025335687424011
 32
0.0
 13
15.45118740095257
 23
25.025335687424011
 33
0.0
  0
SOLID
  5
4C28
  8
DIM
 10
17.657297390258869
 20
25.475257997662322
 30
0.0
 11
17.678135171578901
 21
25.35708106730085
 31
0.0
 12
18.022247072003271
 22
25.478682876441681
 32
0.0
 13
18.022247072003271
 23
25.478682876441681
 33
0.0
  0
TEXT
  5
4C29
  8
OBJECT
 10
16.424217236477919
 20
25.127009281932839
 30
0.0
 40
0.25
  1
2.611
 41
0.75
  0
LINE
  5
4C2A
  8
DIM
 10
16.1864599520684
 20
20.855397835816898
 30
0.0
 11
16.140684590713761
 21
21.115002810453859
 31
0.0
  0
LINE
  5
4C2B
  8
DIM
 10
17.908325257342941
 20
21.159009146282621
 30
0.0
 11
17.862549895988298
 21
21.418614120919582
 31
0.0
  0
LINE
  5
4C2C
  8
DIM
 10
15.818452360675421
 20
20.8693152244335
 30
0.0
 11
15.463921569591029
 21
20.806801880473401
 31
0.0
  0
LINE
  5
4C2D
  8
DIM
 10
18.24937924811875
 20
21.297953222819409
 30
0.0
 11
18.60391003920315
 21
21.360466566779511
 31
0.0
  0
SOLID
  5
4C2E
  8
DIM
 10
15.808033470015401
 20
20.928403689614228
 30
0.0
 11
15.828871251335441
 21
20.810226759252771
 31
0.0
 12
16.172983151759819
 22
20.931828568393598
 32
0.0
 13
16.172983151759819
 23
20.931828568393598
 33
0.0
  0
SOLID
  5
4C2F
  8
DIM
 10
18.23896035745873
 20
21.357041688000141
 30
0.0
 11
18.25979813877877
 21
21.23886475763868
 31
0.0
 12
17.89484845703436
 22
21.23543987885931
 32
0.0
 13
17.89484845703436
 23
21.23543987885931
 33
0.0
  0
TEXT
  5
4C30
  8
OBJECT
 10
16.574935261269619
 20
20.93831596987139
 30
0.0
 40
0.25
  1
1.748
 41
0.75
  0
LINE
  5
4C31
  8
HIDDEN
 10
16.381407065831461
 20
19.446333554386332
 30
0.0
 11
17.335617920404061
 21
19.446333554386332
 31
0.0
  0
LINE
  5
4C32
  8
HIDDEN
 10
17.335617920404061
 20
19.536333554386331
 30
0.0
 11
16.419046574173439
 21
19.536333554386331
 31
0.0
  0
LINE
  5
4C33
  8
HIDDEN
 10
18.11661792040406
 20
27.037833554386332
 30
0.0
 11
16.486617920404079
 21
27.037833554386332
 31
0.0
  0
LINE
  5
4C34
  8
HIDDEN
 10
16.486617920404079
 20
27.037833554386332
 30
0.0
 11
16.486617920404079
 21
27.372833554386322
 31
0.0
  0
LINE
  5
4C35
  8
HIDDEN
 10
16.486617920404079
 20
27.372833554386322
 30
0.0
 11
17.91711792040407
 21
27.372833554386322
 31
0.0
  0
LINE
  5
4C36
  8
HIDDEN
 10
18.234617920404069
 20
27.080333554386328
 30
0.0
 11
16.70261792040408
 21
27.080333554386328
 31
0.0
  0
LINE
  5
4C37
  8
HIDDEN
 10
16.70261792040408
 20
27.080333554386328
 30
0.0
 11
16.70261792040408
 21
27.330333554386328
 31
0.0
  0
LINE
  5
4C38
  8
HIDDEN
 10
16.70261792040408
 20
27.330333554386328
 30
0.0
 11
18.07061337806876
 21
27.330333554386328
 31
0.0
  0
LINE
  5
4C39
  8
DIM
 10
15.234617920404061
 20
27.586984365161332
 30
0.0
 11
15.234617920404061
 21
28.433230894601
 31
0.0
  0
LINE
  5
4C3A
  8
DIM
 10
18.234617920404059
 20
27.2656477711839
 30
0.0
 11
18.234617920404059
 21
28.433230894601
 31
0.0
  0
LINE
  5
4C3B
  8
DIM
 10
15.594617920404071
 20
28.247230894601
 30
0.0
 11
16.226492920404059
 21
28.247230894601
 31
0.0
  0
LINE
  5
4C3C
  8
DIM
 10
17.87461792040407
 20
28.247230894601
 30
0.0
 11
17.242742920404069
 21
28.247230894601
 31
0.0
  0
SOLID
  5
4C3D
  8
DIM
 10
15.594617920404071
 20
28.307230894600998
 30
0.0
 11
15.594617920404071
 21
28.187230894601001
 31
0.0
 12
15.234617920404061
 22
28.247230894601
 32
0.0
 13
15.234617920404061
 23
28.247230894601
 33
0.0
  0
SOLID
  5
4C3E
  8
DIM
 10
17.87461792040407
 20
28.307230894600998
 30
0.0
 11
17.87461792040407
 21
28.187230894601001
 31
0.0
 12
18.234617920404059
 22
28.247230894601
 32
0.0
 13
18.234617920404059
 23
28.247230894601
 33
0.0
  0
TEXT
  5
4C3F
  8
OBJECT
 10
16.406492920404059
 20
28.122230894601
 30
0.0
 40
0.25
  1
3.000
 41
0.75
  0
LINE
  5
4C40
  8
DIM
 10
18.234617920404059
 20
19.431019337588769
 30
0.0
 11
18.234617920404059
 21
18.413392518840698
 31
0.0
  0
LINE
  5
4C41
  8
DIM
 10
16.259617920404072
 20
19.014016250844222
 30
0.0
 11
16.259617920404072
 21
18.413392518840698
 31
0.0
  0
LINE
  5
4C42
  8
DIM
 10
18.594617920404069
 20
18.599392518840698
 30
0.0
 11
18.954617920404061
 21
18.599392518840698
 31
0.0
  0
LINE
  5
4C43
  8
DIM
 10
15.89961792040407
 20
18.599392518840698
 30
0.0
 11
15.539617920404069
 21
18.599392518840698
 31
0.0
  0
SOLID
  5
4C44
  8
DIM
 10
18.594617920404069
 20
18.659392518840701
 30
0.0
 11
18.594617920404069
 21
18.53939251884071
 31
0.0
 12
18.234617920404059
 22
18.599392518840698
 32
0.0
 13
18.234617920404059
 23
18.599392518840698
 33
0.0
  0
SOLID
  5
4C45
  8
DIM
 10
15.89961792040407
 20
18.659392518840701
 30
0.0
 11
15.89961792040407
 21
18.53939251884071
 31
0.0
 12
16.259617920404072
 22
18.599392518840698
 32
0.0
 13
16.259617920404072
 23
18.599392518840698
 33
0.0
  0
TEXT
  5
4C46
  8
OBJECT
 10
16.903367920404069
 20
18.474392518840698
 30
0.0
 40
0.25
  1
1.975
 41
0.75
  0
TEXT
  5
4C47
  8
OBJECT
 10
13.374647120408589
 20
17.005393500607081
 30
0.0
 40
0.25
  1
0.250 DIA. BOSS WITH
 41
0.75
  0
TEXT
  5
4C48
  8
OBJECT
 10
13.374647120408589
 20
16.588726833940409
 30
0.0
 40
0.25
  1
0.094 DIA. HOLE
 41
0.75
  0
TEXT
  5
4C49
  8
OBJECT
 10
13.374647120408589
 20
16.172060167273749
 30
0.0
 40
0.25
  1
(7) PLACES
 41
0.75
  0
LINE
  5
4C4A
  8
DIM
 10
12.152156928476421
 20
24.564065861265551
 30
0.0
 11
14.22633479435035
 21
24.564065861265551
 31
0.0
  0
LINE
  5
4C4B
  8
DIM
 10
12.152156928476421
 20
19.52703050553103
 30
0.0
 11
14.22633479435034
 21
19.52703050553103
 31
0.0
  0
LINE
  5
4C4C
  8
DIM
 10
14.04033479435034
 20
24.204065861265551
 30
0.0
 11
14.04033479435034
 21
22.06596927100826
 31
0.0
  0
LINE
  5
4C4D
  8
DIM
 10
14.04033479435034
 20
19.88703050553103
 30
0.0
 11
14.04033479435034
 21
21.455969271008261
 31
0.0
  0
SOLID
  5
4C4E
  8
DIM
 10
13.980334794350339
 20
24.204065861265551
 30
0.0
 11
14.100334794350349
 21
24.204065861265551
 31
0.0
 12
14.04033479435034
 22
24.564065861265551
 32
0.0
 13
14.04033479435034
 23
24.564065861265551
 33
0.0
  0
SOLID
  5
4C4F
  8
DIM
 10
13.980334794350339
 20
19.88703050553103
 30
0.0
 11
14.10033479435034
 21
19.88703050553103
 31
0.0
 12
14.04033479435034
 22
19.52703050553103
 32
0.0
 13
14.04033479435034
 23
19.52703050553103
 33
0.0
  0
TEXT
  5
4C50
  8
OBJECT
 10
13.72783479435034
 20
21.635969271008261
 30
0.0
 40
0.25
  1
5.115
 41
0.75
  0
LINE
  5
4C51
  8
DIM
 10
11.712156928476411
 20
24.471378007398659
 30
0.0
 11
13.497580897531421
 21
24.471378007398659
 31
0.0
  0
LINE
  5
4C52
  8
DIM
 10
11.712156928476411
 20
19.655357439450562
 30
0.0
 11
13.497580897531421
 21
19.655357439450562
 31
0.0
  0
LINE
  5
4C53
  8
DIM
 10
13.311580897531419
 20
24.11137800739866
 30
0.0
 11
13.311580897531419
 21
22.61388789921563
 31
0.0
  0
LINE
  5
4C54
  8
DIM
 10
13.311580897531419
 20
20.015357439450561
 30
0.0
 11
13.311580897531419
 21
22.003887899215631
 31
0.0
  0
SOLID
  5
4C55
  8
DIM
 10
13.25158089753142
 20
24.11137800739866
 30
0.0
 11
13.37158089753142
 21
24.11137800739866
 31
0.0
 12
13.311580897531419
 22
24.471378007398659
 32
0.0
 13
13.311580897531419
 23
24.471378007398659
 33
0.0
  0
SOLID
  5
4C56
  8
DIM
 10
13.25158089753142
 20
20.015357439450561
 30
0.0
 11
13.37158089753142
 21
20.015357439450561
 31
0.0
 12
13.311580897531419
 22
19.655357439450562
 32
0.0
 13
13.311580897531419
 23
19.655357439450562
 33
0.0
  0
TEXT
  5
4C57
  8
OBJECT
 10
12.952205897531419
 20
22.18388789921563
 30
0.0
 40
0.25
  1
4.890
 41
0.75
  0
LINE
  5
4C58
  8
DIM
 10
16.259617920404072
 20
18.028783671955349
 30
0.0
 11
16.259617920404072
 21
17.600886017256471
 31
0.0
  0
LINE
  5
4C59
  8
DIM
 10
16.281323942612438
 20
19.0159152817177
 30
0.0
 11
16.52671143248099
 21
17.62425367166453
 31
0.0
  0
ARC
  5
4C5A
  8
DIM
 10
16.259617920404072
 20
19.139016250844229
 30
0.0
 40
1.3521302335877581
 50
239.117928542116
 51
269.99999999999977
  0
LINE
  5
4C5B
  8
DIM
 10
15.56560634674768
 20
17.978583528014909
 30
0.0
 11
15.205606346747681
 21
17.978583528014909
 31
0.0
  0
ARC
  5
4C5C
  8
DIM
 10
16.259617920404072
 20
19.139016250844229
 30
0.0
 40
1.3521302335877581
 50
239.39955304916401
 51
254.69977652458189
  0
ARC
  5
4C5D
  8
DIM
 10
16.259617920404072
 20
19.139016250844229
 30
0.0
 40
1.3521302335877581
 50
295.30022347541791
 51
310.60044695083582
  0
SOLID
  5
4C5E
  8
DIM
 10
15.91080950109493
 20
17.894276364211208
 30
0.0
 11
15.89483470853172
 21
17.775344425680959
 31
0.0
 12
16.259617920404072
 22
17.786886017256471
 32
0.0
 13
16.259617920404072
 23
17.786886017256471
 33
0.0
  0
SOLID
  5
4C5F
  8
DIM
 10
16.855658382999991
 20
17.859405604844259
 30
0.0
 11
16.819273969038811
 21
17.973756706372409
 31
0.0
 12
16.49441287143495
 22
17.807427913724801
 32
0.0
 13
16.49441287143495
 23
17.807427913724801
 33
0.0
  0
TEXT
  5
4C60
  8
OBJECT
 10
14.681856346747679
 20
17.853583528014909
 30
0.0
 40
0.25
  1
10°
 41
0.75
  0
LINE
  5
4C61
  8
HIDDEN
 10
15.37280959560457
 20
25.05520683516934
 30
0.0
 11
15.552617920404071
 21
25.05520683516934
 31
0.0
  0
LINE
  5
4C62
  8
HIDDEN
 10
15.552617920404071
 20
25.05520683516934
 30
0.0
 11
15.552617920404071
 21
25.115206835169339
 31
0.0
  0
LINE
  5
4C63
  8
HIDDEN
 10
15.552617920404071
 20
25.115206835169339
 30
0.0
 11
15.362229976762061
 21
25.115206835169339
 31
0.0
  0
LINE
  5
4C64
  8
HIDDEN
 10
16.486617920404079
 20
27.25033355438633
 30
0.0
 11
15.48661792040407
 21
27.25033355438633
 31
0.0
  0
LINE
  5
4C65
  8
HIDDEN
 10
15.48661792040407
 20
27.25033355438633
 30
0.0
 11
15.48661792040407
 21
27.16033355438633
 31
0.0
  0
LINE
  5
4C66
  8
HIDDEN
 10
15.48661792040407
 20
27.16033355438633
 30
0.0
 11
16.486617920404079
 21
27.16033355438633
 31
0.0
  0
LINE
  5
4C67
  8
DIM
 10
17.58961792040407
 20
27.598333554386329
 30
0.0
 11
19.182193927425288
 21
27.598333554386329
 31
0.0
  0
LINE
  5
4C68
  8
DIM
 10
17.58961792040407
 20
19.098333554386329
 30
0.0
 11
19.182193927425288
 21
19.098333554386329
 31
0.0
  0
LINE
  5
4C69
  8
DIM
 10
18.996193927425288
 20
27.23833355438633
 30
0.0
 11
18.996193927425288
 21
23.653333554386329
 31
0.0
  0
LINE
  5
4C6A
  8
DIM
 10
18.996193927425288
 20
19.458333554386329
 30
0.0
 11
18.996193927425288
 21
23.043333554386329
 31
0.0
  0
SOLID
  5
4C6B
  8
DIM
 10
18.9361939274253
 20
27.23833355438633
 30
0.0
 11
19.056193927425291
 21
27.23833355438633
 31
0.0
 12
18.996193927425288
 22
27.598333554386329
 32
0.0
 13
18.996193927425288
 23
27.598333554386329
 33
0.0
  0
SOLID
  5
4C6C
  8
DIM
 10
18.93619392742529
 20
19.458333554386329
 30
0.0
 11
19.056193927425291
 21
19.458333554386329
 31
0.0
 12
18.996193927425288
 22
19.098333554386329
 32
0.0
 13
18.996193927425288
 23
19.098333554386329
 33
0.0
  0
TEXT
  5
4C6D
  8
OBJECT
 10
18.652443927425288
 20
23.223333554386329
 30
0.0
 40
0.25
  1
8.500
 41
0.75
  0
LINE
  5
4C6E
  8
HIDDEN
 10
18.234617920404069
 20
19.61633355438633
 30
0.0
 11
17.551617920404059
 21
19.61633355438633
 31
0.0
  0
LINE
  5
4C6F
  8
HIDDEN
 10
17.551617920404059
 20
19.61633355438633
 30
0.0
 11
17.551617920404059
 21
19.366333554386319
 31
0.0
  0
LINE
  5
4C70
  8
HIDDEN
 10
17.551617920404059
 20
19.366333554386319
 30
0.0
 11
18.07061337806876
 21
19.366333554386319
 31
0.0
  0
LINE
  5
4C71
  8
HIDDEN
 10
17.86123617770874
 20
19.323833554386329
 30
0.0
 11
17.335617920404061
 21
19.323833554386329
 31
0.0
  0
LINE
  5
4C72
  8
HIDDEN
 10
17.335617920404061
 20
19.323833554386329
 30
0.0
 11
17.335617920404061
 21
19.65883355438633
 31
0.0
  0
LINE
  5
4C73
  8
HIDDEN
 10
17.335617920404061
 20
19.65883355438633
 30
0.0
 11
18.11661792040406
 21
19.658833554386408
 31
0.0
  0
LINE
  5
4C74
  8
HIDDEN
 10
18.11661792040406
 20
19.812333554386321
 30
0.0
 11
17.916617920404072
 21
19.808842541400669
 31
0.0
  0
LINE
  5
4C75
  8
HIDDEN
 10
17.916617920404072
 20
19.808842541400669
 30
0.0
 11
17.916617920404072
 21
19.65883355438638
 31
0.0
  0
LINE
  5
4C76
  8
HIDDEN
 10
18.11661792040406
 20
21.850333554386332
 30
0.0
 11
17.916617920404072
 21
21.853824567371969
 31
0.0
  0
LINE
  5
4C77
  8
HIDDEN
 10
17.916617920404072
 20
21.853824567371969
 30
0.0
 11
17.916617920404072
 21
22.09684254140069
 31
0.0
  0
LINE
  5
4C78
  8
HIDDEN
 10
17.916617920404072
 20
22.09684254140069
 30
0.0
 11
18.11661792040406
 21
22.100333554386332
 31
0.0
  0
LINE
  5
4C79
  8
HIDDEN
 10
17.916617920404072
 20
21.928333554386331
 30
0.0
 11
18.151617920404071
 21
21.928333554386331
 31
0.0
  0
LINE
  5
4C7A
  8
HIDDEN
 10
18.151617920404071
 20
21.928333554386331
 30
0.0
 11
18.151617920404071
 21
22.022333554386329
 31
0.0
  0
LINE
  5
4C7B
  8
HIDDEN
 10
18.151617920404071
 20
22.022333554386329
 30
0.0
 11
17.916617920404072
 21
22.022333554386321
 31
0.0
  0
LINE
  5
4C7C
  8
HIDDEN
 10
17.916617920404072
 20
23.301333554386321
 30
0.0
 11
18.151617920404071
 21
23.301333554386328
 31
0.0
  0
LINE
  5
4C7D
  8
HIDDEN
 10
18.151617920404071
 20
23.301333554386328
 30
0.0
 11
18.151617920404071
 21
23.39533355438633
 31
0.0
  0
LINE
  5
4C7E
  8
HIDDEN
 10
18.151617920404071
 20
23.39533355438633
 30
0.0
 11
17.916617920404072
 21
23.39533355438633
 31
0.0
  0
LINE
  5
4C7F
  8
HIDDEN
 10
18.11661792040406
 20
23.223333554386329
 30
0.0
 11
17.916617920404072
 21
23.22682456737197
 31
0.0
  0
LINE
  5
4C80
  8
HIDDEN
 10
17.916617920404072
 20
23.22682456737197
 30
0.0
 11
17.916617920404072
 21
23.469842541400681
 31
0.0
  0
LINE
  5
4C81
  8
HIDDEN
 10
17.916617920404072
 20
23.469842541400681
 30
0.0
 11
18.11661792040406
 21
23.473333554386329
 31
0.0
  0
LINE
  5
4C82
  8
HIDDEN
 10
18.11661792040406
 20
26.88433355438633
 30
0.0
 11
17.916617920404072
 21
26.887824567371979
 31
0.0
  0
LINE
  5
4C83
  8
HIDDEN
 10
17.916617920404072
 20
26.887824567371979
 30
0.0
 11
17.916617920404072
 21
27.037833554386271
 31
0.0
  0
ENDSEC
  0
EOF
