  0
SECTION
  2
HEADER
  9
$ACADVER
  1
AC1009
  9
$INSBASE
 10
0.0
 20
0.0
 30
0.0
  9
$EXTMIN
 10
0.0
 20
-0.0000000000000036
 30
-0.00000001
  9
$EXTMAX
 10
21.199999999999999
 20
31.32
 30
0.00000001
  9
$LIMMIN
 10
0.0
 20
0.0
  9
$LIMMAX
 10
12.0
 20
9.0
  9
$ORTHOMODE
 70
     1
  9
$REGENMODE
 70
     1
  9
$FILLMODE
 70
     1
  9
$QTEXTMODE
 70
     0
  9
$MIRRTEXT
 70
     0
  9
$DRAGMODE
 70
     2
  9
$LTSCALE
 40
0.5
  9
$OSMODE
 70
    37
  9
$ATTMODE
 70
     1
  9
$TEXTSIZE
 40
0.25
  9
$TRACEWID
 40
0.05
  9
$TEXTSTYLE
  7
STANDARD
  9
$CLAYER
  8
OBJECT
  9
$CELTYPE
  6
BYLAYER
  9
$CECOLOR
 62
   256
  9
$DIMSCALE
 40
2.0
  9
$DIMASZ
 40
0.18
  9
$DIMEXO
 40
0.0625
  9
$DIMDLI
 40
0.281
  9
$DIMRND
 40
0.0
  9
$DIMDLE
 40
0.0
  9
$DIMEXE
 40
0.093
  9
$DIMTP
 40
0.0
  9
$DIMTM
 40
0.0
  9
$DIMTXT
 40
0.125
  9
$DIMCEN
 40
0.09
  9
$DIMTSZ
 40
0.0
  9
$DIMTOL
 70
     0
  9
$DIMLIM
 70
     0
  9
$DIMTIH
 70
     1
  9
$DIMTOH
 70
     1
  9
$DIMSE1
 70
     0
  9
$DIMSE2
 70
     0
  9
$DIMTAD
 70
     0
  9
$DIMZIN
 70
     0
  9
$DIMBLK
  1

  9
$DIMASO
 70
     1
  9
$DIMSHO
 70
     1
  9
$DIMPOST
  1

  9
$DIMAPOST
  1

  9
$DIMALT
 70
     0
  9
$DIMALTD
 70
     2
  9
$DIMALTF
 40
25.399999999999999
  9
$DIMLFAC
 40
1.0
  9
$DIMTOFL
 70
     0
  9
$DIMTVP
 40
0.0
  9
$DIMTIX
 70
     0
  9
$DIMSOXD
 70
     0
  9
$DIMSAH
 70
     0
  9
$DIMBLK1
  1

  9
$DIMBLK2
  1

  9
$DIMSTYLE
  2
DIMOUT
  9
$DIMCLRD
 70
     0
  9
$DIMCLRE
 70
     0
  9
$DIMCLRT
 70
     0
  9
$DIMTFAC
 40
1.0
  9
$DIMGAP
 40
0.09
  9
$LUNITS
 70
     2
  9
$LUPREC
 70
     4
  9
$SKETCHINC
 40
0.1
  9
$FILLETRAD
 40
0.0
  9
$AUNITS
 70
     0
  9
$AUPREC
 70
     0
  9
$MENU
  1
.
  9
$ELEVATION
 40
0.0
  9
$PELEVATION
 40
0.0
  9
$THICKNESS
 40
0.0
  9
$LIMCHECK
 70
     0
  9
$BLIPMODE
 70
     0
  9
$CHAMFERA
 40
0.5
  9
$CHAMFERB
 40
0.5
  9
$SKPOLY
 70
     0
  9
$TDCREATE
 40
2451576.722073738
  9
$TDUPDATE
 40
2451786.4474583329
  9
$TDINDWG
 40
0.3207729167
  9
$TDUSRTIMER
 40
0.3207729167
  9
$USRTIMER
 70
     1
  9
$ANGBASE
 50
0.0
  9
$ANGDIR
 70
     0
  9
$PDMODE
 70
     0
  9
$PDSIZE
 40
0.0
  9
$PLINEWID
 40
0.0
  9
$COORDS
 70
     1
  9
$SPLFRAME
 70
     0
  9
$SPLINETYPE
 70
     6
  9
$SPLINESEGS
 70
     8
  9
$ATTDIA
 70
     0
  9
$ATTREQ
 70
     1
  9
$HANDLING
 70
  4097
  9
$HANDSEED
  5
584B
  9
$SURFTAB1
 70
     6
  9
$SURFTAB2
 70
     6
  9
$SURFTYPE
 70
     6
  9
$SURFU
 70
     6
  9
$SURFV
 70
     6
  9
$UCSNAME
  2

  9
$UCSORG
 10
0.0
 20
0.0
 30
0.0
  9
$UCSXDIR
 10
1.0
 20
0.0
 30
0.0
  9
$UCSYDIR
 10
0.0
 20
1.0
 30
0.0
  9
$PUCSNAME
  2

  9
$PUCSORG
 10
0.0
 20
0.0
 30
0.0
  9
$PUCSXDIR
 10
1.0
 20
0.0
 30
0.0
  9
$PUCSYDIR
 10
0.0
 20
1.0
 30
0.0
  9
$USERI1
 70
     0
  9
$USERI2
 70
     0
  9
$USERI3
 70
     0
  9
$USERI4
 70
     0
  9
$USERI5
 70
     0
  9
$USERR1
 40
0.0
  9
$USERR2
 40
0.0
  9
$USERR3
 40
0.0
  9
$USERR4
 40
0.0
  9
$USERR5
 40
0.0
  9
$WORLDVIEW
 70
     1
  9
$SHADEDGE
 70
     3
  9
$SHADEDIF
 70
    70
  9
$TILEMODE
 70
     1
  9
$MAXACTVP
 70
    64
  9
$PLIMCHECK
 70
     0
  9
$PEXTMIN
 10
1.0000000000000000E+020
 20
1.0000000000000000E+020
 30
1.0000000000000000E+020
  9
$PEXTMAX
 10
-1.0000000000000000E+020
 20
-1.0000000000000000E+020
 30
-1.0000000000000000E+020
  9
$PLIMMIN
 10
0.0
 20
0.0
  9
$PLIMMAX
 10
12.0
 20
9.0
  9
$UNITMODE
 70
     0
  9
$VISRETAIN
 70
     1
  9
$PLINEGEN
 70
     0
  9
$PSLTSCALE
 70
     1
  0
ENDSEC
  0
SECTION
  2
TABLES
  0
TABLE
  2
VPORT
 70
     2
  0
VPORT
  2
*ACTIVE
 70
     0
 10
0.0
 20
0.0
 11
1.0
 21
1.0
 12
10.6001788722069
 22
15.660000145849571
 13
0.0
 23
0.0
 14
0.5
 24
0.5
 15
0.5
 25
0.5
 16
0.0
 26
0.0
 36
1.0
 17
0.0
 27
0.0
 37
0.0
 40
31.676436755027911
 41
1.763157894736842
 42
50.0
 43
0.0
 44
0.0
 50
0.0
 51
0.0
 71
     0
 72
   100
 73
     1
 74
     2
 75
     0
 76
     0
 77
     0
 78
     2
  0
ENDTAB
  0
TABLE
  2
LTYPE
 70
     6
  0
LTYPE
  2
CONTINUOUS
 70
     0
  3
Solid line
 72
    65
 73
     0
 40
0.0
  0
LTYPE
  2
HIDDEN
 70
     0
  3
_ _ _ _ _ _ _ _ _ _ _ _ _ _ _ _ _ _ _ _ _ _ _
 72
    65
 73
     2
 40
0.375
 49
0.25
 49
-0.125
  0
LTYPE
  2
PHANTOM
 70
     0
  3
_____ _ _ _____ _ _ _____ _ _ _____ _ _ ____
 72
    65
 73
     6
 40
2.5
 49
1.25
 49
-0.25
 49
0.25
 49
-0.25
 49
0.25
 49
-0.25
  0
LTYPE
  2
CENTER
 70
     0
  3
____ _ ____ _ ____ _ ____ _ ____ _ ____ _ ____
 72
    65
 73
     4
 40
2.0
 49
1.25
 49
-0.25
 49
0.25
 49
-0.25
  0
LTYPE
  2
HIDDEN2
 70
     0
  3
_ _ _ _ _ _ _ _ _ _ _ _ _ _ _ _ _ _ _ _ _ _ _ _
 72
    65
 73
     2
 40
0.1875
 49
0.125
 49
-0.0625
  0
LTYPE
  2
PHANTOM2
 70
     0
  3
___ _ _ ___ _ _ ___ _ _ ___ _ _ ___ _ _ ___ _ _
 72
    65
 73
     6
 40
1.25
 49
0.625
 49
-0.125
 49
0.125
 49
-0.125
 49
0.125
 49
-0.125
  0
ENDTAB
  0
TABLE
  2
LAYER
 70
     9
  0
LAYER
  2
0
 70
     0
 62
     7
  6
CONTINUOUS
  0
LAYER
  2
OBJECT
 70
     0
 62
     7
  6
CONTINUOUS
  0
LAYER
  2
DIM
 70
     0
 62
     7
  6
CONTINUOUS
  0
LAYER
  2
HIDDEN
 70
     0
 62
     7
  6
HIDDEN
  0
LAYER
  2
BEND
 70
     0
 62
     7
  6
PHANTOM
  0
LAYER
  2
TEXT
 70
     0
 62
     7
  6
CONTINUOUS
  0
LAYER
  2
TITLE
 70
     0
 62
     7
  6
CONTINUOUS
  0
LAYER
  2
CENTER
 70
     0
 62
     7
  6
CENTER
  0
LAYER
  2
DEFPOINTS
 70
     0
 62
     7
  6
CONTINUOUS
  0
ENDTAB
  0
TABLE
  2
STYLE
 70
     2
  0
STYLE
  2
STANDARD
 70
     0
 40
0.0
 41
0.75
 50
0.0
 71
     0
 42
0.25
  3
txt.shx
  4

  0
STYLE
  2
TXT
 70
     0
 40
0.0
 41
0.75
 50
0.0
 71
     0
 42
0.125
  3
TXT.shx
  4

  0
ENDTAB
  0
TABLE
  2
VIEW
 70
     0
  0
ENDTAB
  0
TABLE
  2
UCS
 70
     0
  0
ENDTAB
  0
TABLE
  2
APPID
 70
     1
  0
APPID
  2
ACAD
 70
     0
  0
ENDTAB
  0
TABLE
  2
DIMSTYLE
 70
     2
  0
DIMSTYLE
  2
DIMIN
 70
     0
  3

  4

  5

  6

  7

 40
2.0
 41
0.18
 42
0.0625
 43
0.281
 44
0.093
 45
0.0
 46
0.0
 47
0.0
 48
0.0
140
0.125
141
0.09
142
0.0
143
25.399999999999999
144
1.0
145
0.0
146
1.0
147
0.09
 71
     0
 72
     0
 73
     1
 74
     1
 75
     0
 76
     0
 77
     0
 78
     0
170
     0
171
     2
172
     0
173
     0
174
     1
175
     0
176
     0
177
     0
178
     0
  0
DIMSTYLE
  2
DIMOUT
 70
     0
  3

  4

  5

  6

  7

 40
2.0
 41
0.18
 42
0.0625
 43
0.281
 44
0.093
 45
0.0
 46
0.0
 47
0.0
 48
0.0
140
0.125
141
0.09
142
0.0
143
25.399999999999999
144
1.0
145
0.0
146
1.0
147
0.09
 71
     0
 72
     0
 73
     1
 74
     1
 75
     0
 76
     0
 77
     0
 78
     0
170
     0
171
     2
172
     0
173
     0
174
     0
175
     0
176
     0
177
     0
178
     0
  0
ENDTAB
  0
ENDSEC
  0
SECTION
  2
BLOCKS
  0
BLOCK
  8
0
  2
$MODEL_SPACE
 70
     0
 10
0.0
 20
0.0
 30
0.0
  3
$MODEL_SPACE
  1

  0
ENDBLK
  5
21
  8
0
  0
BLOCK
 67
     1
  8
0
  2
$PAPER_SPACE
 70
     0
 10
0.0
 20
0.0
 30
0.0
  3
$PAPER_SPACE
  1

  0
ENDBLK
  5
1D
 67
     1
  8
0
  0
BLOCK
  8
0
  2
HB
 70
     0
 10
0.0
 20
0.0
 30
0.0
  3
HB
  1

  0
TEXT
  5
1E82
  8
TEXT
 10
0.2078333333333363
 20
15.22007919564008
 30
0.0
 40
0.125
  1
NAME
  7
TXT
 72
     1
 11
0.437000000000003
 21
15.22007919564008
 31
0.0
  0
TEXT
  5
1E83
  8
TEXT
 10
0.2078333333333363
 20
15.428412528973411
 30
0.0
 40
0.125
  1
PART
  7
TXT
 72
     1
 11
0.437000000000003
 21
15.428412528973411
 31
0.0
  0
TEXT
  5
1E84
  8
TEXT
 10
5.6119999999999983
 20
15.22007919564008
 30
0.0
 40
0.125
  1
No.
  7
TXT
 72
     1
 11
5.7369999999999983
 21
15.22007919564008
 31
0.0
  0
TEXT
  5
1E85
  8
TEXT
 10
5.5078333333333314
 20
15.428412528973411
 30
0.0
 40
0.125
  1
PART
  7
TXT
 72
     1
 11
5.7369999999999983
 21
15.428412528973411
 31
0.0
  0
LINE
  5
1E86
  8
TITLE
 10
6.112000000000001
 20
15.598000000000001
 30
0.0
 11
6.112000000000001
 21
15.179999999999991
 31
0.0
  0
LINE
  5
1E87
  8
TITLE
 10
5.362000000000001
 20
15.598000000000001
 30
0.0
 11
5.362000000000001
 21
15.179999999999991
 31
0.0
  0
LINE
  5
1E88
  8
TITLE
 10
5.2999999999999998
 20
15.598000000000001
 30
0.0
 11
5.2999999999999998
 21
15.179999999999991
 31
0.0
  0
LINE
  5
1E89
  8
TITLE
 10
0.8120000000000029
 20
15.179999999999991
 30
0.0
 11
0.8120000000000011
 21
15.598000000000001
 31
0.0
  0
LINE
  5
1E8A
  8
TITLE
 10
0.0620000000000012
 20
15.179999999999991
 30
0.0
 11
10.538
 21
15.179999999999991
 31
0.0
  0
LINE
  5
1E8B
  8
TITLE
 10
10.538
 20
0.0619999999999994
 30
0.0
 11
0.0619999999999976
 21
0.0620000000000012
 31
0.0
  0
LINE
  5
1E8C
  8
TITLE
 10
10.538
 20
15.598000000000001
 30
0.0
 11
10.538
 21
0.0619999999999994
 31
0.0
  0
LINE
  5
1E8D
  8
TITLE
 10
0.0620000000000012
 20
15.598000000000001
 30
0.0
 11
10.538
 21
15.598000000000001
 31
0.0
  0
LINE
  5
1E8E
  8
TITLE
 10
0.0619999999999976
 20
0.0620000000000012
 30
0.0
 11
0.0620000000000012
 21
15.598000000000001
 31
0.0
  0
LINE
  5
1E8F
  8
TITLE
 10
0.0
 20
0.0
 30
0.0
 11
0.0
 21
15.66
 31
0.0
  0
LINE
  5
1E90
  8
TITLE
 10
10.6
 20
-0.0000000000000018
 30
0.0
 11
0.0
 21
0.0
 31
0.0
  0
LINE
  5
1E91
  8
TITLE
 10
10.6
 20
15.659999999999989
 30
0.0
 11
10.6
 21
-0.0000000000000018
 31
0.0
  0
LINE
  5
1E92
  8
TITLE
 10
0.0
 20
15.66
 30
0.0
 11
10.6
 21
15.659999999999989
 31
0.0
  0
ENDBLK
  5
1E94
  8
0
  0
BLOCK
  8
0
  2
*D2
 70
     1
 10
0.0
 20
0.0
 30
0.0
  3
*D2
  1

  0
LINE
  5
4CD2
  8
DIM
 62
     0
 10
15.1583150133842
 20
25.057741832976781
 30
0.0
 11
14.68364948325295
 21
23.28626595792538
 31
0.0
  0
LINE
  5
4CD3
  8
DIM
 62
     0
 10
16.491599522991141
 20
24.70048932534667
 30
0.0
 11
16.016933992859901
 21
22.929013450295258
 31
0.0
  0
LINE
  5
4CD4
  8
DIM
 62
     0
 10
14.384056528177959
 20
23.559103017852049
 30
0.0
 11
14.03632323071389
 21
23.652277874088959
 31
0.0
  0
LINE
  5
4CD5
  8
DIM
 62
     0
 10
16.412807632713029
 20
23.015500797748121
 30
0.0
 11
16.76054093017709
 21
22.922325941511211
 31
0.0
  0
SOLID
  5
4CD6
  8
DIM
 62
     0
 10
14.399585670884109
 20
23.617058567429389
 30
0.0
 11
14.368527385471809
 21
23.501147468274709
 31
0.0
 12
14.73178982564202
 22
23.465928161615139
 32
0.0
 13
14.73178982564202
 23
23.465928161615139
 33
0.0
  0
SOLID
  5
4CD7
  8
DIM
 62
     0
 10
16.428336775419179
 20
23.073456347325461
 30
0.0
 11
16.39727849000688
 21
22.957545248170781
 31
0.0
 12
16.065074335248958
 22
23.108675653985031
 32
0.0
 13
16.065074335248958
 23
23.108675653985031
 33
0.0
  0
TEXT
  5
4CD8
  8
OBJECT
 62
     0
 10
15.07030708044549
 20
23.162301907800089
 30
0.0
 40
0.25
  1
1.380
 41
0.75
  0
POINT
  5
4CD9
  8
DEFPOINTS
 62
     0
 10
15.190667394022009
 20
25.178482561262911
 30
0.0
  0
POINT
  5
4CDA
  8
DEFPOINTS
 62
     0
 10
16.523951903628959
 20
24.821230053632799
 30
0.0
  0
POINT
  5
4CDB
  8
DEFPOINTS
 62
     0
 10
16.065074335248958
 20
23.108675653985031
 30
0.0
  0
ENDBLK
  5
2641
  8
0
  0
BLOCK
  8
0
  2
*D3
 70
     1
 10
0.0
 20
0.0
 30
0.0
  3
*D3
  1

  0
LINE
  5
4DB4
  8
DIM
 62
     0
 10
3.7759722846572248
 20
2.0271244215166528
 30
0.0
 11
3.7759722846572248
 21
0.9640637247367038
 31
0.0
  0
LINE
  5
4DB5
  8
DIM
 62
     0
 10
11.28597228465723
 20
2.0271244215166528
 30
0.0
 11
11.28597228465723
 21
0.9640637247367038
 31
0.0
  0
LINE
  5
4DB6
  8
DIM
 62
     0
 10
4.1359722846572247
 20
1.1500637247367029
 30
0.0
 11
7.0228472846572281
 21
1.1500637247367029
 31
0.0
  0
LINE
  5
4DB7
  8
DIM
 62
     0
 10
10.925972284657229
 20
1.1500637247367029
 30
0.0
 11
8.0390972846572275
 21
1.1500637247367029
 31
0.0
  0
SOLID
  5
4DB8
  8
DIM
 62
     0
 10
4.1359722846572247
 20
1.210063724736703
 30
0.0
 11
4.1359722846572247
 21
1.0900637247367031
 31
0.0
 12
3.7759722846572248
 22
1.1500637247367029
 32
0.0
 13
3.7759722846572248
 23
1.1500637247367029
 33
0.0
  0
SOLID
  5
4DB9
  8
DIM
 62
     0
 10
10.925972284657229
 20
1.210063724736703
 30
0.0
 11
10.925972284657229
 21
1.0900637247367031
 31
0.0
 12
11.28597228465723
 22
1.1500637247367029
 32
0.0
 13
11.28597228465723
 23
1.1500637247367029
 33
0.0
  0
TEXT
  5
4DBA
  8
OBJECT
 62
     0
 10
7.2028472846572269
 20
1.0250637247367029
 30
0.0
 40
0.25
  1
7.510
 41
0.75
  0
POINT
  5
4DBB
  8
DEFPOINTS
 62
     0
 10
3.7759722846572248
 20
2.1521244215166528
 30
0.0
  0
POINT
  5
4DBC
  8
DEFPOINTS
 62
     0
 10
11.28597228465723
 20
2.1521244215166528
 30
0.0
  0
POINT
  5
4DBD
  8
DEFPOINTS
 62
     0
 10
11.28597228465723
 20
1.1500637247367029
 30
0.0
  0
ENDBLK
  5
2748
  8
0
  0
BLOCK
  8
0
  2
*D4
 70
     1
 10
0.0
 20
0.0
 30
0.0
  3
*D4
  1

  0
LINE
  5
4C72
  8
DIM
 62
     0
 10
14.860013892103121
 20
27.287068720860091
 30
0.0
 11
14.860013892103121
 21
28.21299405325405
 31
0.0
  0
LINE
  5
4C73
  8
DIM
 62
     0
 10
19.825013892103119
 20
27.034351438933971
 30
0.0
 11
19.825013892103119
 21
28.21299405325405
 31
0.0
  0
LINE
  5
4C74
  8
DIM
 62
     0
 10
15.22001389210312
 20
28.02699405325405
 30
0.0
 11
16.787513892103121
 21
28.02699405325405
 31
0.0
  0
LINE
  5
4C75
  8
DIM
 62
     0
 10
19.465013892103119
 20
28.02699405325405
 30
0.0
 11
17.89751389210312
 21
28.02699405325405
 31
0.0
  0
SOLID
  5
4C76
  8
DIM
 62
     0
 10
15.22001389210312
 20
28.086994053254049
 30
0.0
 11
15.22001389210312
 21
27.966994053254052
 31
0.0
 12
14.860013892103121
 22
28.02699405325405
 32
0.0
 13
14.860013892103121
 23
28.02699405325405
 33
0.0
  0
SOLID
  5
4C77
  8
DIM
 62
     0
 10
19.465013892103119
 20
28.086994053254049
 30
0.0
 11
19.465013892103119
 21
27.966994053254052
 31
0.0
 12
19.825013892103119
 22
28.02699405325405
 32
0.0
 13
19.825013892103119
 23
28.02699405325405
 33
0.0
  0
TEXT
  5
4C78
  8
OBJECT
 62
     0
 10
16.967513892103121
 20
27.90199405325405
 30
0.0
 40
0.25
  1
4.965
 41
0.75
  0
POINT
  5
4C79
  8
DEFPOINTS
 62
     0
 10
14.860013892103121
 20
27.162068720860091
 30
0.0
  0
POINT
  5
4C7A
  8
DEFPOINTS
 62
     0
 10
19.825013892103119
 20
26.90935143893396
 30
0.0
  0
POINT
  5
4C7B
  8
DEFPOINTS
 62
     0
 10
19.825013892103119
 20
28.02699405325405
 30
0.0
  0
ENDBLK
  5
2801
  8
0
  0
BLOCK
  8
0
  2
*D5
 70
     1
 10
0.0
 20
0.0
 30
0.0
  3
*D5
  1

  0
LINE
  5
4E38
  8
DIM
 62
     0
 10
3.5989722846572292
 20
19.17073417328109
 30
0.0
 11
3.5989722846572292
 21
17.884644775070999
 31
0.0
  0
LINE
  5
4E39
  8
DIM
 62
     0
 10
11.46297228465723
 20
19.17073417328109
 30
0.0
 11
11.46297228465723
 21
17.884644775070999
 31
0.0
  0
LINE
  5
4E3A
  8
DIM
 62
     0
 10
3.9589722846572282
 20
18.070644775070999
 30
0.0
 11
6.569722284657229
 21
18.070644775070999
 31
0.0
  0
LINE
  5
4E3B
  8
DIM
 62
     0
 10
11.102972284657231
 20
18.070644775070999
 30
0.0
 11
8.4922222846572293
 21
18.070644775070999
 31
0.0
  0
SOLID
  5
4E3C
  8
DIM
 62
     0
 10
3.9589722846572282
 20
18.130644775071008
 30
0.0
 11
3.9589722846572282
 21
18.010644775071011
 31
0.0
 12
3.5989722846572292
 22
18.070644775070999
 32
0.0
 13
3.5989722846572292
 23
18.070644775070999
 33
0.0
  0
SOLID
  5
4E3D
  8
DIM
 62
     0
 10
11.102972284657231
 20
18.130644775071008
 30
0.0
 11
11.102972284657231
 21
18.010644775071011
 31
0.0
 12
11.46297228465723
 22
18.070644775070999
 32
0.0
 13
11.46297228465723
 23
18.070644775070999
 33
0.0
  0
TEXT
  5
4E3E
  8
OBJECT
 62
     0
 10
6.7497222846572287
 20
17.945644775070999
 30
0.0
 40
0.25
  1
7.864 TYP.
 41
0.75
  0
POINT
  5
4E3F
  8
DEFPOINTS
 62
     0
 10
3.5989722846572292
 20
19.29573417328109
 30
0.0
  0
POINT
  5
4E40
  8
DEFPOINTS
 62
     0
 10
11.46297228465723
 20
19.29573417328109
 30
0.0
  0
POINT
  5
4E41
  8
DEFPOINTS
 62
     0
 10
11.46297228465723
 20
18.070644775070999
 30
0.0
  0
ENDBLK
  5
2827
  8
0
  0
BLOCK
  8
0
  2
*D6
 70
     1
 10
0.0
 20
0.0
 30
0.0
  3
*D6
  1

  0
LINE
  5
4D14
  8
DIM
 62
     0
 10
3.0434722846572271
 20
18.930037222136399
 30
0.0
 11
3.0434722846572271
 21
17.467679241070151
 31
0.0
  0
LINE
  5
4D15
  8
DIM
 62
     0
 10
12.01847228465722
 20
18.930037222136399
 30
0.0
 11
12.01847228465722
 21
17.467679241070151
 31
0.0
  0
LINE
  5
4D16
  8
DIM
 62
     0
 10
3.4034722846572261
 20
17.653679241070151
 30
0.0
 11
6.9759722846572281
 21
17.653679241070151
 31
0.0
  0
LINE
  5
4D17
  8
DIM
 62
     0
 10
11.65847228465722
 20
17.653679241070151
 30
0.0
 11
8.0859722846572275
 21
17.653679241070151
 31
0.0
  0
SOLID
  5
4D18
  8
DIM
 62
     0
 10
3.4034722846572261
 20
17.71367924107015
 30
0.0
 11
3.4034722846572261
 21
17.593679241070149
 31
0.0
 12
3.0434722846572271
 22
17.653679241070151
 32
0.0
 13
3.0434722846572271
 23
17.653679241070151
 33
0.0
  0
SOLID
  5
4D19
  8
DIM
 62
     0
 10
11.65847228465722
 20
17.71367924107015
 30
0.0
 11
11.65847228465722
 21
17.593679241070149
 31
0.0
 12
12.01847228465722
 22
17.653679241070151
 32
0.0
 13
12.01847228465722
 23
17.653679241070151
 33
0.0
  0
TEXT
  5
4D1A
  8
OBJECT
 62
     0
 10
7.1559722846572269
 20
17.528679241070151
 30
0.0
 40
0.25
  1
8.975
 41
0.75
  0
POINT
  5
4D1B
  8
DEFPOINTS
 62
     0
 10
3.0434722846572271
 20
19.055037222136392
 30
0.0
  0
POINT
  5
4D1C
  8
DEFPOINTS
 62
     0
 10
12.01847228465722
 20
19.055037222136392
 30
0.0
  0
POINT
  5
4D1D
  8
DEFPOINTS
 62
     0
 10
12.01847228465722
 20
17.653679241070151
 30
0.0
  0
ENDBLK
  5
2835
  8
0
  0
BLOCK
  8
0
  2
*D7
 70
     1
 10
0.0
 20
0.0
 30
0.0
  3
*D7
  1

  0
LINE
  5
4C54
  8
DIM
 62
     0
 10
16.700013892103119
 20
27.290560736949441
 30
0.0
 11
13.14986287071561
 21
27.290560736949441
 31
0.0
  0
LINE
  5
4C55
  8
DIM
 62
     0
 10
16.700013892103119
 20
24.74056073694944
 30
0.0
 11
13.14986287071561
 21
24.74056073694944
 31
0.0
  0
LINE
  5
4C56
  8
DIM
 62
     0
 10
13.33586287071561
 20
26.930560736949442
 30
0.0
 11
13.33586287071561
 21
26.320560736949439
 31
0.0
  0
LINE
  5
4C57
  8
DIM
 62
     0
 10
13.33586287071561
 20
25.100560736949429
 30
0.0
 11
13.33586287071561
 21
25.710560736949439
 31
0.0
  0
SOLID
  5
4C58
  8
DIM
 62
     0
 10
13.27586287071561
 20
26.930560736949442
 30
0.0
 11
13.395862870715611
 21
26.930560736949442
 31
0.0
 12
13.33586287071561
 22
27.290560736949441
 32
0.0
 13
13.33586287071561
 23
27.290560736949441
 33
0.0
  0
SOLID
  5
4C59
  8
DIM
 62
     0
 10
13.27586287071561
 20
25.100560736949429
 30
0.0
 11
13.395862870715611
 21
25.100560736949429
 31
0.0
 12
13.33586287071561
 22
24.74056073694944
 32
0.0
 13
13.33586287071561
 23
24.74056073694944
 33
0.0
  0
TEXT
  5
4C5A
  8
OBJECT
 62
     0
 10
12.97648787071561
 20
25.890560736949439
 30
0.0
 40
0.25
  1
2.550
 41
0.75
  0
POINT
  5
4C5B
  8
DEFPOINTS
 62
     0
 10
16.825013892103119
 20
27.290560736949441
 30
0.0
  0
POINT
  5
4C5C
  8
DEFPOINTS
 62
     0
 10
16.825013892103119
 20
24.74056073694944
 30
0.0
  0
POINT
  5
4C5D
  8
DEFPOINTS
 62
     0
 10
13.33586287071561
 20
24.74056073694944
 30
0.0
  0
ENDBLK
  5
2906
  8
0
  0
BLOCK
  8
0
  2
*D8
 70
     1
 10
0.0
 20
0.0
 30
0.0
  3
*D8
  1

  0
LINE
  5
4E60
  8
DIM
 62
     0
 10
12.14347228465722
 20
12.388680927324341
 30
0.0
 11
12.8250616723278
 21
12.388680927324341
 31
0.0
  0
LINE
  5
4E61
  8
DIM
 62
     0
 10
7.6559722846572242
 20
11.01568092732434
 30
0.0
 11
12.82506167232779
 21
11.015680927324331
 31
0.0
  0
LINE
  5
4E62
  8
DIM
 62
     0
 10
12.6390616723278
 20
12.74868092732433
 30
0.0
 11
12.6390616723278
 21
13.10868092732434
 31
0.0
  0
LINE
  5
4E63
  8
DIM
 62
     0
 10
12.63906167232779
 20
10.65568092732433
 30
0.0
 11
12.63906167232779
 21
10.29568092732433
 31
0.0
  0
SOLID
  5
4E64
  8
DIM
 62
     0
 10
12.579061672327789
 20
12.74868092732433
 30
0.0
 11
12.699061672327799
 21
12.74868092732433
 31
0.0
 12
12.6390616723278
 22
12.388680927324341
 32
0.0
 13
12.6390616723278
 23
12.388680927324341
 33
0.0
  0
SOLID
  5
4E65
  8
DIM
 62
     0
 10
12.579061672327789
 20
10.65568092732433
 30
0.0
 11
12.69906167232779
 21
10.65568092732433
 31
0.0
 12
12.63906167232779
 22
11.015680927324331
 32
0.0
 13
12.63906167232779
 23
11.015680927324331
 33
0.0
  0
TEXT
  5
4E66
  8
OBJECT
 62
     0
 10
12.29531167232779
 20
11.57718092732434
 30
0.0
 40
0.25
  1
1.373
 41
0.75
  0
POINT
  5
4E67
  8
DEFPOINTS
 62
     0
 10
12.01847228465722
 20
12.388680927324341
 30
0.0
  0
POINT
  5
4E68
  8
DEFPOINTS
 62
     0
 10
7.5309722846572242
 20
11.01568092732434
 30
0.0
  0
POINT
  5
4E69
  8
DEFPOINTS
 62
     0
 10
12.63906167232779
 20
11.015680927324331
 30
0.0
  0
ENDBLK
  5
291F
  8
0
  0
BLOCK
  8
0
  2
*D9
 70
     1
 10
0.0
 20
0.0
 30
0.0
  3
*D9
  1

  0
LINE
  5
4E74
  8
DIM
 62
     0
 10
12.14347228465722
 20
12.388680927324341
 30
0.0
 11
13.51770399537833
 21
12.388680927324341
 31
0.0
  0
LINE
  5
4E75
  8
DIM
 62
     0
 10
11.19897228465722
 20
8.7276809273243394
 30
0.0
 11
13.51770399537833
 21
8.7276809273243376
 31
0.0
  0
LINE
  5
4E76
  8
DIM
 62
     0
 10
13.33170399537833
 20
12.02868092732434
 30
0.0
 11
13.33170399537833
 21
10.863180927324329
 31
0.0
  0
LINE
  5
4E77
  8
DIM
 62
     0
 10
13.33170399537833
 20
9.0876809273243371
 30
0.0
 11
13.33170399537833
 21
10.25318092732433
 31
0.0
  0
SOLID
  5
4E78
  8
DIM
 62
     0
 10
13.27170399537833
 20
12.02868092732434
 30
0.0
 11
13.391703995378331
 21
12.02868092732434
 31
0.0
 12
13.33170399537833
 22
12.388680927324341
 32
0.0
 13
13.33170399537833
 23
12.388680927324341
 33
0.0
  0
SOLID
  5
4E79
  8
DIM
 62
     0
 10
13.27170399537833
 20
9.0876809273243371
 30
0.0
 11
13.391703995378331
 21
9.0876809273243371
 31
0.0
 12
13.33170399537833
 22
8.7276809273243376
 32
0.0
 13
13.33170399537833
 23
8.7276809273243376
 33
0.0
  0
TEXT
  5
4E7A
  8
OBJECT
 62
     0
 10
12.987953995378319
 20
10.43318092732434
 30
0.0
 40
0.25
  1
3.661
 41
0.75
  0
POINT
  5
4E7B
  8
DEFPOINTS
 62
     0
 10
12.01847228465722
 20
12.388680927324341
 30
0.0
  0
POINT
  5
4E7C
  8
DEFPOINTS
 62
     0
 10
11.07397228465722
 20
8.7276809273243394
 30
0.0
  0
POINT
  5
4E7D
  8
DEFPOINTS
 62
     0
 10
13.33170399537833
 20
8.7276809273243376
 30
0.0
  0
ENDBLK
  5
292D
  8
0
  0
BLOCK
  8
0
  2
*D10
 70
     1
 10
0.0
 20
0.0
 30
0.0
  3
*D10
  1

  0
LINE
  5
4E6A
  8
DIM
 62
     0
 10
11.55347228465722
 20
12.388680927324341
 30
0.0
 11
13.51770399537833
 21
12.388680927324341
 31
0.0
  0
LINE
  5
4E6B
  8
DIM
 62
     0
 10
11.19897228465722
 20
16.049680927324331
 30
0.0
 11
13.51770399537833
 21
16.049680927324331
 31
0.0
  0
LINE
  5
4E6C
  8
DIM
 62
     0
 10
13.33170399537833
 20
12.74868092732433
 30
0.0
 11
13.33170399537833
 21
13.914180927324329
 31
0.0
  0
LINE
  5
4E6D
  8
DIM
 62
     0
 10
13.33170399537833
 20
15.689680927324339
 30
0.0
 11
13.33170399537833
 21
14.524180927324331
 31
0.0
  0
SOLID
  5
4E6E
  8
DIM
 62
     0
 10
13.27170399537833
 20
12.74868092732433
 30
0.0
 11
13.391703995378331
 21
12.74868092732433
 31
0.0
 12
13.33170399537833
 22
12.388680927324341
 32
0.0
 13
13.33170399537833
 23
12.388680927324341
 33
0.0
  0
SOLID
  5
4E6F
  8
DIM
 62
     0
 10
13.27170399537833
 20
15.689680927324339
 30
0.0
 11
13.391703995378331
 21
15.689680927324339
 31
0.0
 12
13.33170399537833
 22
16.049680927324331
 32
0.0
 13
13.33170399537833
 23
16.049680927324331
 33
0.0
  0
TEXT
  5
4E70
  8
OBJECT
 62
     0
 10
12.98795399537833
 20
14.09418092732434
 30
0.0
 40
0.25
  1
3.661
 41
0.75
  0
POINT
  5
4E71
  8
DEFPOINTS
 62
     0
 10
11.42847228465722
 20
12.388680927324341
 30
0.0
  0
POINT
  5
4E72
  8
DEFPOINTS
 62
     0
 10
11.07397228465722
 20
16.049680927324331
 30
0.0
  0
POINT
  5
4E73
  8
DEFPOINTS
 62
     0
 10
13.33170399537833
 20
16.049680927324331
 30
0.0
  0
ENDBLK
  5
2963
  8
0
  0
BLOCK
  8
0
  2
*D11
 70
     1
 10
0.0
 20
0.0
 30
0.0
  3
*D11
  1

  0
LINE
  5
4DFC
  8
DIM
 62
     0
 10
7.5309722846572562
 20
8.0136809273243266
 30
0.0
 11
7.5309722846572562
 21
7.4524313493760754
 31
0.0
  0
LINE
  5
4DFD
  8
DIM
 62
     0
 10
3.9879722846572241
 20
8.6026809273243412
 30
0.0
 11
3.9879722846572241
 21
7.4524313493760754
 31
0.0
  0
LINE
  5
4DFE
  8
DIM
 62
     0
 10
7.170972284657255
 20
7.6384313493760754
 30
0.0
 11
6.3144722846572403
 21
7.6384313493760754
 31
0.0
  0
LINE
  5
4DFF
  8
DIM
 62
     0
 10
4.3479722846572253
 20
7.6384313493760754
 30
0.0
 11
5.20447228465724
 21
7.6384313493760754
 31
0.0
  0
SOLID
  5
4E00
  8
DIM
 62
     0
 10
7.170972284657255
 20
7.6984313493760741
 30
0.0
 11
7.170972284657255
 21
7.5784313493760749
 31
0.0
 12
7.5309722846572562
 22
7.6384313493760754
 32
0.0
 13
7.5309722846572562
 23
7.6384313493760754
 33
0.0
  0
SOLID
  5
4E01
  8
DIM
 62
     0
 10
4.3479722846572253
 20
7.6984313493760741
 30
0.0
 11
4.3479722846572253
 21
7.5784313493760749
 31
0.0
 12
3.9879722846572241
 22
7.6384313493760754
 32
0.0
 13
3.9879722846572241
 23
7.6384313493760754
 33
0.0
  0
TEXT
  5
4E02
  8
OBJECT
 62
     0
 10
5.3844722846572397
 20
7.5134313493760754
 30
0.0
 40
0.25
  1
3.543
 41
0.75
  0
POINT
  5
4E03
  8
DEFPOINTS
 62
     0
 10
7.5309722846572562
 20
8.1386809273243266
 30
0.0
  0
POINT
  5
4E04
  8
DEFPOINTS
 62
     0
 10
3.9879722846572241
 20
8.7276809273243412
 30
0.0
  0
POINT
  5
4E05
  8
DEFPOINTS
 62
     0
 10
3.9879722846572241
 20
7.6384313493760754
 30
0.0
  0
ENDBLK
  5
2971
  8
0
  0
BLOCK
  8
0
  2
*D12
 70
     1
 10
0.0
 20
0.0
 30
0.0
  3
*D12
  1

  0
LINE
  5
4DCA
  8
DIM
 62
     0
 10
7.5309722846572562
 20
8.0136809273243266
 30
0.0
 11
7.5309722846572562
 21
7.4524313493760754
 31
0.0
  0
LINE
  5
4DCB
  8
DIM
 62
     0
 10
11.07397228465722
 20
8.6026809273243412
 30
0.0
 11
11.07397228465722
 21
7.4524313493760754
 31
0.0
  0
LINE
  5
4DCC
  8
DIM
 62
     0
 10
7.8909722846572556
 20
7.6384313493760754
 30
0.0
 11
8.7474722846572401
 21
7.6384313493760754
 31
0.0
  0
LINE
  5
4DCD
  8
DIM
 62
     0
 10
10.713972284657221
 20
7.6384313493760754
 30
0.0
 11
9.8574722846572413
 21
7.6384313493760754
 31
0.0
  0
SOLID
  5
4DCE
  8
DIM
 62
     0
 10
7.8909722846572556
 20
7.6984313493760741
 30
0.0
 11
7.8909722846572556
 21
7.5784313493760749
 31
0.0
 12
7.5309722846572562
 22
7.6384313493760754
 32
0.0
 13
7.5309722846572562
 23
7.6384313493760754
 33
0.0
  0
SOLID
  5
4DCF
  8
DIM
 62
     0
 10
10.713972284657221
 20
7.6984313493760741
 30
0.0
 11
10.713972284657221
 21
7.5784313493760749
 31
0.0
 12
11.07397228465722
 22
7.6384313493760754
 32
0.0
 13
11.07397228465722
 23
7.6384313493760754
 33
0.0
  0
TEXT
  5
4DD0
  8
OBJECT
 62
     0
 10
8.9274722846572416
 20
7.5134313493760754
 30
0.0
 40
0.25
  1
3.543
 41
0.75
  0
POINT
  5
4DD1
  8
DEFPOINTS
 62
     0
 10
7.5309722846572562
 20
8.1386809273243266
 30
0.0
  0
POINT
  5
4DD2
  8
DEFPOINTS
 62
     0
 10
11.07397228465722
 20
8.7276809273243412
 30
0.0
  0
POINT
  5
4DD3
  8
DEFPOINTS
 62
     0
 10
11.07397228465722
 20
7.6384313493760754
 30
0.0
  0
ENDBLK
  5
2980
  8
0
  0
BLOCK
  8
0
  2
*D13
 70
     1
 10
0.0
 20
0.0
 30
0.0
  3
*D13
  1

  0
LINE
  5
4DF2
  8
DIM
 62
     0
 10
7.5309722846572562
 20
16.763680927324351
 30
0.0
 11
7.5309722846572562
 21
17.303044889282329
 31
0.0
  0
LINE
  5
4DF3
  8
DIM
 62
     0
 10
3.633472284657226
 20
12.513680927324341
 30
0.0
 11
3.6334722846572269
 21
17.303044889282329
 31
0.0
  0
LINE
  5
4DF4
  8
DIM
 62
     0
 10
7.170972284657255
 20
17.117044889282329
 30
0.0
 11
6.1372222846572413
 21
17.117044889282329
 31
0.0
  0
LINE
  5
4DF5
  8
DIM
 62
     0
 10
3.9934722846572268
 20
17.117044889282329
 30
0.0
 11
5.027222284657241
 21
17.117044889282329
 31
0.0
  0
SOLID
  5
4DF6
  8
DIM
 62
     0
 10
7.170972284657255
 20
17.177044889282332
 30
0.0
 11
7.170972284657255
 21
17.057044889282331
 31
0.0
 12
7.5309722846572562
 22
17.117044889282329
 32
0.0
 13
7.5309722846572562
 23
17.117044889282329
 33
0.0
  0
SOLID
  5
4DF7
  8
DIM
 62
     0
 10
3.9934722846572268
 20
17.177044889282332
 30
0.0
 11
3.9934722846572268
 21
17.057044889282331
 31
0.0
 12
3.6334722846572269
 22
17.117044889282329
 32
0.0
 13
3.6334722846572269
 23
17.117044889282329
 33
0.0
  0
TEXT
  5
4DF8
  8
OBJECT
 62
     0
 10
5.2072222846572407
 20
16.992044889282329
 30
0.0
 40
0.25
  1
3.898
 41
0.75
  0
POINT
  5
4DF9
  8
DEFPOINTS
 62
     0
 10
7.5309722846572562
 20
16.638680927324351
 30
0.0
  0
POINT
  5
4DFA
  8
DEFPOINTS
 62
     0
 10
3.633472284657226
 20
12.388680927324341
 30
0.0
  0
POINT
  5
4DFB
  8
DEFPOINTS
 62
     0
 10
3.6334722846572269
 20
17.117044889282329
 30
0.0
  0
ENDBLK
  5
29A2
  8
0
  0
BLOCK
  8
0
  2
*D14
 70
     1
 10
0.0
 20
0.0
 30
0.0
  3
*D14
  1

  0
LINE
  5
4DDE
  8
DIM
 62
     0
 10
7.5309722846572562
 20
16.763680927324351
 30
0.0
 11
7.5309722846572562
 21
17.303044889282329
 31
0.0
  0
LINE
  5
4DDF
  8
DIM
 62
     0
 10
11.42847228465722
 20
12.513680927324341
 30
0.0
 11
11.42847228465722
 21
17.303044889282329
 31
0.0
  0
LINE
  5
4DE0
  8
DIM
 62
     0
 10
7.8909722846572556
 20
17.117044889282329
 30
0.0
 11
8.9247222846572392
 21
17.117044889282329
 31
0.0
  0
LINE
  5
4DE1
  8
DIM
 62
     0
 10
11.06847228465722
 20
17.117044889282329
 30
0.0
 11
10.03472228465724
 21
17.117044889282329
 31
0.0
  0
SOLID
  5
4DE2
  8
DIM
 62
     0
 10
7.8909722846572556
 20
17.177044889282332
 30
0.0
 11
7.8909722846572556
 21
17.057044889282331
 31
0.0
 12
7.5309722846572562
 22
17.117044889282329
 32
0.0
 13
7.5309722846572562
 23
17.117044889282329
 33
0.0
  0
SOLID
  5
4DE3
  8
DIM
 62
     0
 10
11.06847228465722
 20
17.177044889282332
 30
0.0
 11
11.06847228465722
 21
17.057044889282331
 31
0.0
 12
11.42847228465722
 22
17.117044889282329
 32
0.0
 13
11.42847228465722
 23
17.117044889282329
 33
0.0
  0
TEXT
  5
4DE4
  8
OBJECT
 62
     0
 10
9.1047222846572406
 20
16.992044889282329
 30
0.0
 40
0.25
  1
3.898
 41
0.75
  0
POINT
  5
4DE5
  8
DEFPOINTS
 62
     0
 10
7.5309722846572562
 20
16.638680927324351
 30
0.0
  0
POINT
  5
4DE6
  8
DEFPOINTS
 62
     0
 10
11.42847228465722
 20
12.388680927324341
 30
0.0
  0
POINT
  5
4DE7
  8
DEFPOINTS
 62
     0
 10
11.42847228465722
 20
17.117044889282329
 30
0.0
  0
ENDBLK
  5
29B0
  8
0
  0
BLOCK
  8
0
  2
*D15
 70
     1
 10
0.0
 20
0.0
 30
0.0
  3
*D15
  1

  0
LINE
  5
4DAA
  8
DIM
 62
     0
 10
3.6509722846572248
 20
2.1521244215166528
 30
0.0
 11
2.2347014367499218
 21
2.1521244215166528
 31
0.0
  0
LINE
  5
4DAB
  8
DIM
 62
     0
 10
3.6509722846572248
 20
3.4021244215166528
 30
0.0
 11
2.2347014367499218
 21
3.4021244215166528
 31
0.0
  0
LINE
  5
4DAC
  8
DIM
 62
     0
 10
2.4207014367499222
 20
1.792124421516653
 30
0.0
 11
2.4207014367499222
 21
1.4321244215166531
 31
0.0
  0
LINE
  5
4DAD
  8
DIM
 62
     0
 10
2.4207014367499222
 20
3.7621244215166532
 30
0.0
 11
2.4207014367499222
 21
4.122124421516653
 31
0.0
  0
SOLID
  5
4DAE
  8
DIM
 62
     0
 10
2.3607014367499222
 20
1.792124421516653
 30
0.0
 11
2.4807014367499218
 21
1.792124421516653
 31
0.0
 12
2.4207014367499222
 22
2.1521244215166528
 32
0.0
 13
2.4207014367499222
 23
2.1521244215166528
 33
0.0
  0
SOLID
  5
4DAF
  8
DIM
 62
     0
 10
2.3607014367499222
 20
3.7621244215166532
 30
0.0
 11
2.4807014367499218
 21
3.7621244215166532
 31
0.0
 12
2.4207014367499222
 22
3.4021244215166528
 32
0.0
 13
2.4207014367499222
 23
3.4021244215166528
 33
0.0
  0
TEXT
  5
4DB0
  8
OBJECT
 62
     0
 10
2.0925764367499209
 20
2.6521244215166542
 30
0.0
 40
0.25
  1
1.250
 41
0.75
  0
POINT
  5
4DB1
  8
DEFPOINTS
 62
     0
 10
3.7759722846572248
 20
2.1521244215166528
 30
0.0
  0
POINT
  5
4DB2
  8
DEFPOINTS
 62
     0
 10
3.7759722846572248
 20
3.4021244215166528
 30
0.0
  0
POINT
  5
4DB3
  8
DEFPOINTS
 62
     0
 10
2.4207014367499222
 20
3.4021244215166528
 30
0.0
  0
ENDBLK
  5
2A0E
  8
0
  0
BLOCK
  8
0
  2
*D16
 70
     1
 10
0.0
 20
0.0
 30
0.0
  3
*D16
  1

  0
LINE
  5
4CDC
  8
DIM
 62
     0
 10
19.180013892103119
 20
27.3670372221364
 30
0.0
 11
20.710501347805948
 21
27.3670372221364
 31
0.0
  0
LINE
  5
4CDD
  8
DIM
 62
     0
 10
19.180013892103119
 20
18.867037222136389
 30
0.0
 11
20.710501347805948
 21
18.867037222136389
 31
0.0
  0
LINE
  5
4CDE
  8
DIM
 62
     0
 10
20.524501347805948
 20
27.0070372221364
 30
0.0
 11
20.524501347805948
 21
23.422037222136399
 31
0.0
  0
LINE
  5
4CDF
  8
DIM
 62
     0
 10
20.524501347805948
 20
19.227037222136399
 30
0.0
 11
20.524501347805948
 21
22.8120372221364
 31
0.0
  0
SOLID
  5
4CE0
  8
DIM
 62
     0
 10
20.46450134780595
 20
27.0070372221364
 30
0.0
 11
20.584501347805951
 21
27.0070372221364
 31
0.0
 12
20.524501347805948
 22
27.3670372221364
 32
0.0
 13
20.524501347805948
 23
27.3670372221364
 33
0.0
  0
SOLID
  5
4CE1
  8
DIM
 62
     0
 10
20.46450134780595
 20
19.227037222136399
 30
0.0
 11
20.584501347805951
 21
19.227037222136399
 31
0.0
 12
20.524501347805948
 22
18.867037222136389
 32
0.0
 13
20.524501347805948
 23
18.867037222136389
 33
0.0
  0
TEXT
  5
4CE2
  8
OBJECT
 62
     0
 10
20.180751347805941
 20
22.9920372221364
 30
0.0
 40
0.25
  1
8.500
 41
0.75
  0
POINT
  5
4CE3
  8
DEFPOINTS
 62
     0
 10
19.055013892103119
 20
27.3670372221364
 30
0.0
  0
POINT
  5
4CE4
  8
DEFPOINTS
 62
     0
 10
19.055013892103119
 20
18.867037222136389
 30
0.0
  0
POINT
  5
4CE5
  8
DEFPOINTS
 62
     0
 10
20.524501347805948
 20
18.867037222136389
 30
0.0
  0
ENDBLK
  5
2A26
  8
0
  0
BLOCK
  8
0
  2
*D17
 70
     1
 10
0.0
 20
0.0
 30
0.0
  3
*D17
  1

  0
LINE
  5
4C8A
  8
DIM
 62
     0
 10
19.825013892103119
 20
19.199723005338829
 30
0.0
 11
19.825013892103119
 21
18.121072224953199
 31
0.0
  0
LINE
  5
4C8B
  8
DIM
 62
     0
 10
17.850013892103121
 20
18.782719918594289
 30
0.0
 11
17.850013892103121
 21
18.121072224953199
 31
0.0
  0
LINE
  5
4C8C
  8
DIM
 62
     0
 10
20.185013892103122
 20
18.30707222495321
 30
0.0
 11
20.545013892103121
 21
18.30707222495321
 31
0.0
  0
LINE
  5
4C8D
  8
DIM
 62
     0
 10
17.490013892103121
 20
18.30707222495321
 30
0.0
 11
17.130013892103118
 21
18.30707222495321
 31
0.0
  0
SOLID
  5
4C8E
  8
DIM
 62
     0
 10
20.185013892103122
 20
18.367072224953201
 30
0.0
 11
20.185013892103122
 21
18.247072224953211
 31
0.0
 12
19.825013892103119
 22
18.30707222495321
 32
0.0
 13
19.825013892103119
 23
18.30707222495321
 33
0.0
  0
SOLID
  5
4C8F
  8
DIM
 62
     0
 10
17.490013892103121
 20
18.367072224953201
 30
0.0
 11
17.490013892103121
 21
18.247072224953211
 31
0.0
 12
17.850013892103121
 22
18.30707222495321
 32
0.0
 13
17.850013892103121
 23
18.30707222495321
 33
0.0
  0
TEXT
  5
4C90
  8
OBJECT
 62
     0
 10
18.493763892103122
 20
18.182072224953199
 30
0.0
 40
0.25
  1
1.975
 41
0.75
  0
POINT
  5
4C91
  8
DEFPOINTS
 62
     0
 10
19.825013892103119
 20
19.324723005338829
 30
0.0
  0
POINT
  5
4C92
  8
DEFPOINTS
 62
     0
 10
17.850013892103121
 20
18.907719918594289
 30
0.0
  0
POINT
  5
4C93
  8
DEFPOINTS
 62
     0
 10
17.850013892103121
 20
18.30707222495321
 30
0.0
  0
ENDBLK
  5
30F5
  8
0
  0
BLOCK
  8
0
  2
*D18
 70
     1
 10
0.0
 20
0.0
 30
0.0
  3
*D18
  1

  0
LINE
  5
4C7C
  8
DIM
 62
     0
 10
17.850013892103121
 20
17.733429195381209
 30
0.0
 11
17.850013892103121
 21
17.30642048310623
 31
0.0
  0
LINE
  5
4C7D
  8
DIM
 62
     0
 10
17.871719914311491
 20
18.78461894946777
 30
0.0
 11
18.12807662097471
 21
17.330747819631579
 31
0.0
  0
ARC
  5
4C7E
  8
DIM
 62
     0
 10
17.850013892103121
 20
18.907719918594299
 30
0.0
 40
1.415299435488065
 50
240.52829772446819
 51
269.99999999999977
  0
LINE
  5
4C7F
  8
DIM
 62
     0
 10
17.153695569128079
 20
17.675561939607
 30
0.0
 11
16.793695569128069
 21
17.675561939607
 31
0.0
  0
ARC
  5
4C80
  8
DIM
 62
     0
 10
17.850013892103131
 20
18.907719918594299
 30
0.0
 40
1.415299435488065
 50
240.7729758579635
 51
255.38648792898169
  0
ARC
  5
4C81
  8
DIM
 62
     0
 10
17.850013892103131
 20
18.907719918594299
 30
0.0
 40
1.415299435488065
 50
294.61351207101808
 51
309.22702414203633
  0
SOLID
  5
4C82
  8
DIM
 62
     0
 10
17.500568183093311
 20
17.59771861440321
 30
0.0
 11
17.48530639505158
 21
17.478693080059649
 31
0.0
 12
17.850013892103121
 22
17.49242048310623
 32
0.0
 13
17.850013892103121
 23
17.49242048310623
 33
0.0
  0
SOLID
  5
4C83
  8
DIM
 62
     0
 10
18.457328569129832
 20
17.563734000987321
 30
0.0
 11
18.42163007480692
 21
17.678301088333889
 31
0.0
 12
18.095778059928659
 22
17.513922061691851
 32
0.0
 13
18.095778059928659
 23
17.513922061691851
 33
0.0
  0
TEXT
  5
4C84
  8
OBJECT
 62
     0
 10
16.26994556912808
 20
17.550561939607011
 30
0.0
 40
0.25
  1
10°
 41
0.75
  0
POINT
  5
4C85
  8
DEFPOINTS
 62
     0
 10
18.01432012792873
 20
17.501990231577039
 30
0.0
  0
POINT
  5
4C86
  8
DEFPOINTS
 62
     0
 10
17.850013892103121
 20
18.782719918594289
 30
0.0
  0
POINT
  5
4C87
  8
DEFPOINTS
 62
     0
 10
17.841295605759701
 20
18.957163777431951
 30
0.0
  0
POINT
  5
4C88
  8
DEFPOINTS
 62
     0
 10
16.82595581141636
 20
24.71544189382568
 30
0.0
  0
POINT
  5
4C89
  8
DEFPOINTS
 62
     0
 10
17.850013892103121
 20
17.858429195381209
 30
0.0
  0
ENDBLK
  5
3106
  8
0
  0
BLOCK
  8
0
  2
*D19
 70
     1
 10
0.0
 20
0.0
 30
0.0
  3
*D19
  1

  0
LINE
  5
4C94
  8
DIM
 62
     0
 10
14.78522638302063
 20
25.287120152739188
 30
0.0
 11
13.79231605481487
 21
25.553169673338441
 31
0.0
  0
LINE
  5
4C95
  8
DIM
 62
     0
 10
14.66251465190599
 20
24.74056073694943
 30
0.0
 11
13.685334058777419
 21
24.74056073694943
 31
0.0
  0
ARC
  5
4C96
  8
DIM
 62
     0
 10
16.825013892103119
 20
24.74056073694944
 30
0.0
 40
2.9536798333257028
 50
151.02470797975579
 51
158.01235398987779
  0
ARC
  5
4C97
  8
DIM
 62
     0
 10
16.825013892103119
 20
24.74056073694944
 30
0.0
 40
2.9536798333257028
 50
186.98764601012201
 51
193.97529202024401
  0
SOLID
  5
4C98
  8
DIM
 62
     0
 10
14.14307260004167
 20
25.827406014805401
 30
0.0
 11
14.02926965708636
 21
25.865470304825191
 31
0.0
 12
13.971978258504629
 22
25.50502933094938
 32
0.0
 13
13.971978258504629
 23
25.50502933094938
 33
0.0
  0
SOLID
  5
4C99
  8
DIM
 62
     0
 10
13.83338431161736
 20
24.377573386356481
 30
0.0
 11
13.95316127652103
 21
24.384886298120399
 31
0.0
 12
13.871334058777419
 22
24.74056073694943
 32
0.0
 13
13.871334058777419
 23
24.74056073694943
 33
0.0
  0
TEXT
  5
4C9A
  8
OBJECT
 62
     0
 10
13.709103199208901
 20
25.001093318630598
 30
0.0
 40
0.25
  1
15°
 41
0.75
  0
POINT
  5
4C9B
  8
DEFPOINTS
 62
     0
 10
13.916207092328159
 20
25.25346185741801
 30
0.0
  0
POINT
  5
4C9C
  8
DEFPOINTS
 62
     0
 10
16.825013892103119
 20
24.74056073694944
 30
0.0
  0
POINT
  5
4C9D
  8
DEFPOINTS
 62
     0
 10
14.78751465190599
 20
24.74056073694943
 30
0.0
  0
POINT
  5
4C9E
  8
DEFPOINTS
 62
     0
 10
18.01112888424661
 20
24.74056073694943
 30
0.0
  0
POINT
  5
4C9F
  8
DEFPOINTS
 62
     0
 10
14.90596711130677
 20
25.254767772101371
 30
0.0
  0
ENDBLK
  5
3147
  8
0
  0
BLOCK
  8
0
  2
*D20
 70
     1
 10
0.0
 20
0.0
 30
0.0
  3
*D20
  1

  0
LINE
  5
4E1A
  8
DIM
 62
     0
 10
16.045164673499759
 20
10.769171940309979
 30
0.0
 11
16.045164673499759
 21
10.272586380886761
 31
0.0
  0
LINE
  5
4E1B
  8
DIM
 62
     0
 10
16.245164673499751
 20
10.373168348502521
 30
0.0
 11
16.245164673499751
 21
10.272586380886761
 31
0.0
  0
LINE
  5
4E1C
  8
DIM
 62
     0
 10
15.685164673499759
 20
10.458586380886761
 30
0.0
 11
15.32516467349976
 21
10.458586380886761
 31
0.0
  0
LINE
  5
4E1D
  8
DIM
 62
     0
 10
16.60516467349975
 20
10.458586380886761
 30
0.0
 11
16.96516467349975
 21
10.458586380886761
 31
0.0
  0
SOLID
  5
4E1E
  8
DIM
 62
     0
 10
15.685164673499759
 20
10.518586380886759
 30
0.0
 11
15.685164673499759
 21
10.39858638088676
 31
0.0
 12
16.045164673499759
 22
10.458586380886761
 32
0.0
 13
16.045164673499759
 23
10.458586380886761
 33
0.0
  0
SOLID
  5
4E1F
  8
DIM
 62
     0
 10
16.60516467349975
 20
10.518586380886759
 30
0.0
 11
16.60516467349975
 21
10.39858638088676
 31
0.0
 12
16.245164673499751
 22
10.458586380886761
 32
0.0
 13
16.245164673499751
 23
10.458586380886761
 33
0.0
  0
TEXT
  5
4E20
  8
OBJECT
 62
     0
 10
17.14516467349975
 20
10.333586380886761
 30
0.0
 40
0.25
  1
0.200
 41
0.75
  0
POINT
  5
4E21
  8
DEFPOINTS
 62
     0
 10
16.045164673499759
 20
10.894171940309979
 30
0.0
  0
POINT
  5
4E22
  8
DEFPOINTS
 62
     0
 10
16.245164673499751
 20
10.498168348502521
 30
0.0
  0
POINT
  5
4E23
  8
DEFPOINTS
 62
     0
 10
16.245164673499751
 20
10.458586380886761
 30
0.0
  0
ENDBLK
  5
3ADE
  8
0
  0
BLOCK
  8
0
  2
*D21
 70
     1
 10
0.0
 20
0.0
 30
0.0
  3
*D21
  1

  0
LINE
  5
4E24
  8
DIM
 62
     0
 10
16.245164673499751
 20
9.3272454571408119
 30
0.0
 11
16.245164673499751
 21
9.2589245382219332
 31
0.0
  0
LINE
  5
4E25
  8
DIM
 62
     0
 10
15.499164673499759
 20
9.3272454571408119
 30
0.0
 11
15.499164673499759
 21
9.2589245382219332
 31
0.0
  0
LINE
  5
4E26
  8
DIM
 62
     0
 10
16.60516467349975
 20
9.4449245382219331
 30
0.0
 11
16.96516467349975
 21
9.4449245382219331
 31
0.0
  0
LINE
  5
4E27
  8
DIM
 62
     0
 10
15.13916467349976
 20
9.4449245382219331
 30
0.0
 11
14.779164673499761
 21
9.4449245382219331
 31
0.0
  0
SOLID
  5
4E28
  8
DIM
 62
     0
 10
16.60516467349975
 20
9.5049245382219336
 30
0.0
 11
16.60516467349975
 21
9.3849245382219326
 31
0.0
 12
16.245164673499751
 22
9.4449245382219331
 32
0.0
 13
16.245164673499751
 23
9.4449245382219331
 33
0.0
  0
SOLID
  5
4E29
  8
DIM
 62
     0
 10
15.13916467349976
 20
9.5049245382219336
 30
0.0
 11
15.13916467349976
 21
9.3849245382219326
 31
0.0
 12
15.499164673499759
 22
9.4449245382219331
 32
0.0
 13
15.499164673499759
 23
9.4449245382219331
 33
0.0
  0
TEXT
  5
4E2A
  8
OBJECT
 62
     0
 10
13.880414673499761
 20
9.3199245382219331
 30
0.0
 40
0.25
  1
0.746
 41
0.75
  0
POINT
  5
4E2B
  8
DEFPOINTS
 62
     0
 10
16.245164673499751
 20
9.4522454571408119
 30
0.0
  0
POINT
  5
4E2C
  8
DEFPOINTS
 62
     0
 10
15.499164673499759
 20
9.4522454571408119
 30
0.0
  0
POINT
  5
4E2D
  8
DEFPOINTS
 62
     0
 10
15.499164673499759
 20
9.4449245382219331
 30
0.0
  0
ENDBLK
  5
3AEB
  8
0
  0
BLOCK
  8
0
  2
*D22
 70
     1
 10
0.0
 20
0.0
 30
0.0
  3
*D22
  1

  0
LINE
  5
4DE8
  8
DIM
 62
     0
 10
9.6732574976771133
 20
16.21368092732434
 30
0.0
 11
9.5017845137127175
 21
16.21368092732434
 31
0.0
  0
LINE
  5
4DE9
  8
DIM
 62
     0
 10
9.6732574976771133
 20
8.5636809273243397
 30
0.0
 11
9.5017845137127157
 21
8.5636809273243397
 31
0.0
  0
LINE
  5
4DEA
  8
DIM
 62
     0
 10
9.6877845137127174
 20
15.853680927324341
 30
0.0
 11
9.6877845137127174
 21
13.26397786405734
 31
0.0
  0
LINE
  5
4DEB
  8
DIM
 62
     0
 10
9.6877845137127157
 20
8.9236809273243392
 30
0.0
 11
9.6877845137127174
 21
12.653977864057341
 31
0.0
  0
SOLID
  5
4DEC
  8
DIM
 62
     0
 10
9.6277845137127152
 20
15.853680927324341
 30
0.0
 11
9.7477845137127161
 21
15.853680927324341
 31
0.0
 12
9.6877845137127174
 22
16.21368092732434
 32
0.0
 13
9.6877845137127174
 23
16.21368092732434
 33
0.0
  0
SOLID
  5
4DED
  8
DIM
 62
     0
 10
9.6277845137127152
 20
8.9236809273243392
 30
0.0
 11
9.7477845137127161
 21
8.9236809273243392
 31
0.0
 12
9.6877845137127157
 22
8.5636809273243397
 32
0.0
 13
9.6877845137127157
 23
8.5636809273243397
 33
0.0
  0
TEXT
  5
4DEE
  8
OBJECT
 62
     0
 10
9.2346595137127139
 20
12.83397786405734
 30
0.0
 40
0.25
  1
*7.650
 41
0.75
  0
POINT
  5
4DEF
  8
DEFPOINTS
 62
     0
 10
9.7982574976771133
 20
16.21368092732434
 30
0.0
  0
POINT
  5
4DF0
  8
DEFPOINTS
 62
     0
 10
9.7982574976771133
 20
8.5636809273243397
 30
0.0
  0
POINT
  5
4DF1
  8
DEFPOINTS
 62
     0
 10
9.6877845137127157
 20
8.5636809273243397
 30
0.0
  0
ENDBLK
  5
3B24
  8
0
  0
BLOCK
  8
0
  2
*D23
 70
     1
 10
0.0
 20
0.0
 30
0.0
  3
*D23
  1

  0
LINE
  5
4DD4
  8
DIM
 62
     0
 10
3.4684722846572309
 20
13.94193069488559
 30
0.0
 11
3.4684722846572309
 21
13.78894727564845
 31
0.0
  0
LINE
  5
4DD5
  8
DIM
 62
     0
 10
11.593472284657221
 20
13.941930694885579
 30
0.0
 11
11.593472284657221
 21
13.78894727564845
 31
0.0
  0
LINE
  5
4DD6
  8
DIM
 62
     0
 10
3.8284722846572312
 20
13.97494727564845
 30
0.0
 11
7.9997907099108927
 21
13.97494727564845
 31
0.0
  0
LINE
  5
4DD7
  8
DIM
 62
     0
 10
11.233472284657219
 20
13.97494727564845
 30
0.0
 11
9.234790709910893
 21
13.97494727564845
 31
0.0
  0
SOLID
  5
4DD8
  8
DIM
 62
     0
 10
3.8284722846572312
 20
14.034947275648451
 30
0.0
 11
3.8284722846572312
 21
13.91494727564845
 31
0.0
 12
3.4684722846572309
 22
13.97494727564845
 32
0.0
 13
3.4684722846572309
 23
13.97494727564845
 33
0.0
  0
SOLID
  5
4DD9
  8
DIM
 62
     0
 10
11.233472284657219
 20
14.034947275648451
 30
0.0
 11
11.233472284657219
 21
13.91494727564845
 31
0.0
 12
11.593472284657221
 22
13.97494727564845
 32
0.0
 13
11.593472284657221
 23
13.97494727564845
 33
0.0
  0
TEXT
  5
4DDA
  8
OBJECT
 62
     0
 10
8.1797907099108933
 20
13.84994727564845
 30
0.0
 40
0.25
  1
*8.125
 41
0.75
  0
POINT
  5
4DDB
  8
DEFPOINTS
 62
     0
 10
3.4684722846572309
 20
14.06693069488559
 30
0.0
  0
POINT
  5
4DDC
  8
DEFPOINTS
 62
     0
 10
11.593472284657221
 20
14.066930694885579
 30
0.0
  0
POINT
  5
4DDD
  8
DEFPOINTS
 62
     0
 10
11.593472284657221
 20
13.97494727564845
 30
0.0
  0
ENDBLK
  5
3B31
  8
0
  0
BLOCK
  8
0
  2
*D24
 70
     1
 10
0.0
 20
0.0
 30
0.0
  3
*D24
  1

  0
LINE
  5
4CF0
  8
DIM
 62
     0
 10
11.58797228465723
 20
24.332769529015611
 30
0.0
 11
13.517703995378341
 21
24.332769529015611
 31
0.0
  0
LINE
  5
4CF1
  8
DIM
 62
     0
 10
11.58797228465723
 20
19.29573417328109
 30
0.0
 11
13.517703995378341
 21
19.29573417328109
 31
0.0
  0
LINE
  5
4CF2
  8
DIM
 62
     0
 10
13.331703995378341
 20
23.972769529015611
 30
0.0
 11
13.331703995378341
 21
21.83467293875832
 31
0.0
  0
LINE
  5
4CF3
  8
DIM
 62
     0
 10
13.33170399537833
 20
19.65573417328109
 30
0.0
 11
13.331703995378341
 21
21.224672938758321
 31
0.0
  0
SOLID
  5
4CF4
  8
DIM
 62
     0
 10
13.27170399537834
 20
23.972769529015611
 30
0.0
 11
13.391703995378339
 21
23.972769529015611
 31
0.0
 12
13.331703995378341
 22
24.332769529015611
 32
0.0
 13
13.331703995378341
 23
24.332769529015611
 33
0.0
  0
SOLID
  5
4CF5
  8
DIM
 62
     0
 10
13.27170399537833
 20
19.65573417328109
 30
0.0
 11
13.391703995378339
 21
19.65573417328109
 31
0.0
 12
13.33170399537833
 22
19.29573417328109
 32
0.0
 13
13.33170399537833
 23
19.29573417328109
 33
0.0
  0
TEXT
  5
4CF6
  8
OBJECT
 62
     0
 10
13.01920399537833
 20
21.404672938758331
 30
0.0
 40
0.25
  1
5.115
 41
0.75
  0
POINT
  5
4CF7
  8
DEFPOINTS
 62
     0
 10
11.46297228465723
 20
24.332769529015611
 30
0.0
  0
POINT
  5
4CF8
  8
DEFPOINTS
 62
     0
 10
11.46297228465723
 20
19.29573417328109
 30
0.0
  0
POINT
  5
4CF9
  8
DEFPOINTS
 62
     0
 10
13.33170399537833
 20
19.29573417328109
 30
0.0
  0
ENDBLK
  5
49F6
  8
0
  0
BLOCK
  8
0
  2
*D25
 70
     1
 10
0.0
 20
0.0
 30
0.0
  3
*D25
  1

  0
LINE
  5
4CE6
  8
DIM
 62
     0
 10
11.14797228465723
 20
24.24008167514873
 30
0.0
 11
12.8250616723278
 21
24.24008167514873
 31
0.0
  0
LINE
  5
4CE7
  8
DIM
 62
     0
 10
11.14797228465723
 20
19.424061107200629
 30
0.0
 11
12.8250616723278
 21
19.424061107200629
 31
0.0
  0
LINE
  5
4CE8
  8
DIM
 62
     0
 10
12.6390616723278
 20
23.88008167514873
 30
0.0
 11
12.6390616723278
 21
22.38259156696569
 31
0.0
  0
LINE
  5
4CE9
  8
DIM
 62
     0
 10
12.6390616723278
 20
19.784061107200628
 30
0.0
 11
12.6390616723278
 21
21.772591566965691
 31
0.0
  0
SOLID
  5
4CEA
  8
DIM
 62
     0
 10
12.5790616723278
 20
23.88008167514873
 30
0.0
 11
12.699061672327799
 21
23.88008167514873
 31
0.0
 12
12.6390616723278
 22
24.24008167514873
 32
0.0
 13
12.6390616723278
 23
24.24008167514873
 33
0.0
  0
SOLID
  5
4CEB
  8
DIM
 62
     0
 10
12.5790616723278
 20
19.784061107200628
 30
0.0
 11
12.699061672327799
 21
19.784061107200628
 31
0.0
 12
12.6390616723278
 22
19.424061107200629
 32
0.0
 13
12.6390616723278
 23
19.424061107200629
 33
0.0
  0
TEXT
  5
4CEC
  8
OBJECT
 62
     0
 10
12.2796866723278
 20
21.952591566965701
 30
0.0
 40
0.25
  1
4.890
 41
0.75
  0
POINT
  5
4CED
  8
DEFPOINTS
 62
     0
 10
11.02297228465723
 20
24.24008167514873
 30
0.0
  0
POINT
  5
4CEE
  8
DEFPOINTS
 62
     0
 10
11.02297228465723
 20
19.424061107200629
 30
0.0
  0
POINT
  5
4CEF
  8
DEFPOINTS
 62
     0
 10
12.6390616723278
 20
19.424061107200629
 30
0.0
  0
ENDBLK
  5
4A03
  8
0
  0
BLOCK
  8
0
  2
*D26
 70
     1
 10
0.0
 20
0.0
 30
0.0
  3
*D26
  1

  0
LINE
  5
4E2E
  8
DIM
 62
     0
 10
3.7119722846572318
 20
19.62207805018863
 30
0.0
 11
3.7119722846572318
 21
18.311097381664059
 31
0.0
  0
LINE
  5
4E2F
  8
DIM
 62
     0
 10
11.34997228465723
 20
19.62207805018863
 30
0.0
 11
11.34997228465723
 21
18.311097381664059
 31
0.0
  0
LINE
  5
4E30
  8
DIM
 62
     0
 10
4.0719722846572317
 20
18.497097381664059
 30
0.0
 11
6.5697222846572307
 21
18.497097381664059
 31
0.0
  0
LINE
  5
4E31
  8
DIM
 62
     0
 10
10.989972284657229
 20
18.497097381664059
 30
0.0
 11
8.4922222846572311
 21
18.497097381664059
 31
0.0
  0
SOLID
  5
4E32
  8
DIM
 62
     0
 10
4.0719722846572317
 20
18.557097381664061
 30
0.0
 11
4.0719722846572317
 21
18.43709738166406
 31
0.0
 12
3.7119722846572318
 22
18.497097381664059
 32
0.0
 13
3.7119722846572318
 23
18.497097381664059
 33
0.0
  0
SOLID
  5
4E33
  8
DIM
 62
     0
 10
10.989972284657229
 20
18.557097381664061
 30
0.0
 11
10.989972284657229
 21
18.43709738166406
 31
0.0
 12
11.34997228465723
 22
18.497097381664059
 32
0.0
 13
11.34997228465723
 23
18.497097381664059
 33
0.0
  0
TEXT
  5
4E34
  8
OBJECT
 62
     0
 10
6.7497222846572313
 20
18.372097381664059
 30
0.0
 40
0.25
  1
7.638 TYP.
 41
0.75
  0
POINT
  5
4E35
  8
DEFPOINTS
 62
     0
 10
3.7119722846572318
 20
19.74707805018863
 30
0.0
  0
POINT
  5
4E36
  8
DEFPOINTS
 62
     0
 10
11.34997228465723
 20
19.74707805018863
 30
0.0
  0
POINT
  5
4E37
  8
DEFPOINTS
 62
     0
 10
11.34997228465723
 20
18.497097381664059
 30
0.0
  0
ENDBLK
  5
4A25
  8
0
  0
BLOCK
  8
0
  2
*D27
 70
     1
 10
0.0
 20
0.0
 30
0.0
  3
*D27
  1

  0
LINE
  5
4CA0
  8
DIM
 62
     0
 10
17.776855923767449
 20
20.624101503566958
 30
0.0
 11
17.73108056241281
 21
20.883706478203919
 31
0.0
  0
LINE
  5
4CA1
  8
DIM
 62
     0
 10
19.49872122904199
 20
20.927712814032692
 30
0.0
 11
19.452945867687362
 21
21.187317788669642
 31
0.0
  0
LINE
  5
4CA2
  8
DIM
 62
     0
 10
17.408848332374468
 20
20.63801889218356
 30
0.0
 11
17.054317541290079
 21
20.575505548223461
 31
0.0
  0
LINE
  5
4CA3
  8
DIM
 62
     0
 10
19.839775219817799
 20
21.066656890569469
 30
0.0
 11
20.194306010902199
 21
21.12917023452956
 31
0.0
  0
SOLID
  5
4CA4
  8
DIM
 62
     0
 10
17.398429441714459
 20
20.697107357364288
 30
0.0
 11
17.419267223034481
 21
20.578930427002831
 31
0.0
 12
17.763379123458861
 22
20.700532236143651
 32
0.0
 13
17.763379123458861
 23
20.700532236143651
 33
0.0
  0
SOLID
  5
4CA5
  8
DIM
 62
     0
 10
19.829356329157779
 20
21.125745355750201
 30
0.0
 11
19.850194110477819
 21
21.00756842538874
 31
0.0
 12
19.485244428733409
 22
21.00414354660937
 32
0.0
 13
19.485244428733409
 23
21.00414354660937
 33
0.0
  0
TEXT
  5
4CA6
  8
OBJECT
 62
     0
 10
18.165331232968679
 20
20.70701963762145
 30
0.0
 40
0.25
  1
1.748
 41
0.75
  0
POINT
  5
4CA7
  8
DEFPOINTS
 62
     0
 10
17.79856194597582
 20
20.501000534440429
 30
0.0
  0
POINT
  5
4CA8
  8
DEFPOINTS
 62
     0
 10
19.520427251250361
 20
20.804611844906159
 30
0.0
  0
POINT
  5
4CA9
  8
DEFPOINTS
 62
     0
 10
19.485244428733409
 20
21.00414354660937
 30
0.0
  0
ENDBLK
  5
4A70
  8
0
  0
BLOCK
  8
0
  2
*D28
 70
     1
 10
0.0
 20
0.0
 30
0.0
  3
*D28
  1

  0
LINE
  5
4CAA
  8
DIM
 62
     0
 10
17.114248198844049
 20
24.381936647463291
 30
0.0
 11
17.009284811605578
 21
24.977213597234361
 31
0.0
  0
LINE
  5
4CAB
  8
DIM
 62
     0
 10
19.68530786989475
 20
24.835283836480951
 30
0.0
 11
19.580344482656269
 21
25.43056078625203
 31
0.0
  0
LINE
  5
4CAC
  8
DIM
 62
     0
 10
17.396114163736019
 20
24.856552699134181
 30
0.0
 11
17.834613208176972
 21
24.933871911684001
 31
0.0
  0
LINE
  5
4CAD
  8
DIM
 62
     0
 10
19.258112252617931
 20
25.18487320023166
 30
0.0
 11
18.819613208176978
 21
25.10755398768184
 31
0.0
  0
SOLID
  5
4CAE
  8
DIM
 62
     0
 10
17.38569527307601
 20
24.915641164314909
 30
0.0
 11
17.406533054396039
 21
24.797464233953448
 31
0.0
 12
17.041583372651619
 22
24.794039355174089
 32
0.0
 13
17.041583372651619
 23
24.794039355174089
 33
0.0
  0
SOLID
  5
4CAF
  8
DIM
 62
     0
 10
19.247693361957911
 20
25.243961665412389
 30
0.0
 11
19.26853114327794
 21
25.125784735050932
 31
0.0
 12
19.61264304370232
 22
25.247386544191759
 32
0.0
 13
19.61264304370232
 23
25.247386544191759
 33
0.0
  0
TEXT
  5
4CB0
  8
OBJECT
 62
     0
 10
18.014613208176971
 20
24.89571294968292
 30
0.0
 40
0.25
  1
2.611
 41
0.75
  0
POINT
  5
4CB1
  8
DEFPOINTS
 62
     0
 10
17.135954221052419
 20
24.258835678336759
 30
0.0
  0
POINT
  5
4CB2
  8
DEFPOINTS
 62
     0
 10
19.70701389210312
 20
24.712182867354421
 30
0.0
  0
POINT
  5
4CB3
  8
DEFPOINTS
 62
     0
 10
19.61264304370232
 20
25.247386544191759
 30
0.0
  0
ENDBLK
  5
4A7D
  8
0
  0
BLOCK
  8
0
  2
*D29
 70
     1
 10
0.0
 20
0.0
 30
0.0
  3
*D29
  1

  0
LINE
  5
4CBE
  8
DIM
 62
     0
 10
15.87044470247662
 20
25.196145083248631
 30
0.0
 11
16.12174025014653
 21
25.128810644188938
 31
0.0
  0
LINE
  5
4CBF
  8
DIM
 62
     0
 10
16.352307462523619
 20
26.994481386019391
 30
0.0
 11
16.603603010193531
 21
26.927146946959699
 31
0.0
  0
LINE
  5
4CC0
  8
DIM
 62
     0
 10
16.035252902693671
 20
25.524684284042081
 30
0.0
 11
16.101284922788771
 21
25.771119137963389
 31
0.0
  0
LINE
  5
4CC1
  8
DIM
 62
     0
 10
16.330765950266859
 20
26.62755399188471
 30
0.0
 11
16.264733930171762
 21
26.381119137963399
 31
0.0
  0
SOLID
  5
4CC2
  8
DIM
 62
     0
 10
15.977297353116329
 20
25.540213426748231
 30
0.0
 11
16.093208452271021
 21
25.509155141335921
 31
0.0
 12
15.94207804645677
 22
25.17695098657801
 32
0.0
 13
15.94207804645677
 23
25.17695098657801
 33
0.0
  0
SOLID
  5
4CC3
  8
DIM
 62
     0
 10
16.272810400689512
 20
26.64308313459086
 30
0.0
 11
16.388721499844198
 21
26.61202484917856
 31
0.0
 12
16.423940806503769
 22
26.975287289348771
 32
0.0
 13
16.423940806503769
 23
26.975287289348771
 33
0.0
  0
TEXT
  5
4CC4
  8
OBJECT
 62
     0
 10
15.83925942648027
 20
25.951119137963389
 30
0.0
 40
0.25
  1
1.862
 41
0.75
  0
POINT
  5
4CC5
  8
DEFPOINTS
 62
     0
 10
15.74970397419049
 20
25.228497463886448
 30
0.0
  0
POINT
  5
4CC6
  8
DEFPOINTS
 62
     0
 10
16.231566734237489
 20
27.026833766657209
 30
0.0
  0
POINT
  5
4CC7
  8
DEFPOINTS
 62
     0
 10
16.423940806503769
 20
26.975287289348771
 30
0.0
  0
ENDBLK
  5
4B02
  8
0
  0
BLOCK
  8
0
  2
*D30
 70
     1
 10
0.0
 20
0.0
 30
0.0
  3
*D30
  1

  0
LINE
  5
4CC8
  8
DIM
 62
     0
 10
15.2854482433352
 20
25.145839175968629
 30
0.0
 11
14.94009910723201
 21
23.856978653681502
 31
0.0
  0
LINE
  5
4CC9
  8
DIM
 62
     0
 10
16.425240718356299
 20
24.840432702747648
 30
0.0
 11
16.079891582253111
 21
23.551572180460521
 31
0.0
  0
LINE
  5
4CCA
  8
DIM
 62
     0
 10
14.640506152157011
 20
24.129815713608171
 30
0.0
 11
14.29277285469295
 21
24.222990569845081
 31
0.0
  0
LINE
  5
4CCB
  8
DIM
 62
     0
 10
16.47576522210624
 20
23.63805952791337
 30
0.0
 11
16.823498519570311
 21
23.544884671676471
 31
0.0
  0
SOLID
  5
4CCC
  8
DIM
 62
     0
 10
14.656035294863161
 20
24.187771263185521
 30
0.0
 11
14.624977009450861
 21
24.071860164030831
 31
0.0
 12
14.98823944962108
 22
24.03664085737126
 32
0.0
 13
14.98823944962108
 23
24.03664085737126
 33
0.0
  0
SOLID
  5
4CCD
  8
DIM
 62
     0
 10
16.49129436481239
 20
23.696015077490721
 30
0.0
 11
16.46023607940009
 21
23.58010397833603
 31
0.0
 12
16.12803192464218
 22
23.731234384150291
 32
0.0
 13
16.12803192464218
 23
23.731234384150291
 33
0.0
  0
TEXT
  5
4CCE
  8
OBJECT
 62
     0
 10
15.261260687131619
 20
23.758937620760769
 30
0.0
 40
0.25
  1
1.180
 41
0.75
  0
POINT
  5
4CCF
  8
DEFPOINTS
 62
     0
 10
15.317800623973019
 20
25.266579904254758
 30
0.0
  0
POINT
  5
4CD0
  8
DEFPOINTS
 62
     0
 10
16.457593098994121
 20
24.961173431033789
 30
0.0
  0
POINT
  5
4CD1
  8
DEFPOINTS
 62
     0
 10
16.12803192464218
 20
23.731234384150291
 30
0.0
  0
ENDBLK
  5
4B5D
  8
0
  0
BLOCK
  8
0
  2
*D31
 70
     1
 10
0.0
 20
0.0
 30
0.0
  3
*D31
  1

  0
LINE
  5
4EA0
  8
DIM
 62
     0
 10
19.507013892103121
 20
26.531528235122039
 30
0.0
 11
19.507013892103121
 21
26.283292963733238
 31
0.0
  0
LINE
  5
4EA1
  8
DIM
 62
     0
 10
14.978013892103119
 20
26.543178081765198
 30
0.0
 11
14.978013892103119
 21
26.283292963733238
 31
0.0
  0
LINE
  5
4EA2
  8
DIM
 62
     0
 10
19.147013892103121
 20
26.469292963733238
 30
0.0
 11
18.068172181640271
 21
26.469292963733238
 31
0.0
  0
LINE
  5
4EA3
  8
DIM
 62
     0
 10
15.33801389210312
 20
26.469292963733238
 30
0.0
 11
16.958172181640279
 21
26.469292963733238
 31
0.0
  0
SOLID
  5
4EA4
  8
DIM
 62
     0
 10
19.147013892103121
 20
26.52929296373323
 30
0.0
 11
19.147013892103121
 21
26.409292963733229
 31
0.0
 12
19.507013892103121
 22
26.469292963733238
 32
0.0
 13
19.507013892103121
 23
26.469292963733238
 33
0.0
  0
SOLID
  5
4EA5
  8
DIM
 62
     0
 10
15.33801389210312
 20
26.52929296373323
 30
0.0
 11
15.33801389210312
 21
26.409292963733229
 31
0.0
 12
14.978013892103119
 22
26.469292963733238
 32
0.0
 13
14.978013892103119
 23
26.469292963733238
 33
0.0
  0
TEXT
  5
4EA6
  8
OBJECT
 62
     0
 10
17.138172181640272
 20
26.344292963733238
 30
0.0
 40
0.25
  1
4.529
 41
0.75
  0
POINT
  5
4EA7
  8
DEFPOINTS
 62
     0
 10
19.507013892103121
 20
26.656528235122039
 30
0.0
  0
POINT
  5
4EA8
  8
DEFPOINTS
 62
     0
 10
14.978013892103119
 20
26.668178081765198
 30
0.0
  0
POINT
  5
4EA9
  8
DEFPOINTS
 62
     0
 10
14.978013892103119
 20
26.469292963733238
 30
0.0
  0
ENDBLK
  5
4E94
  8
0
  0
BLOCK
  8
0
  2
*D32
 70
     1
 10
0.0
 20
0.0
 30
0.0
  3
*D32
  1

  0
LINE
  5
4EC6
  8
DIM
 62
     0
 10
19.507013892103121
 20
21.99054620915075
 30
0.0
 11
19.507013892103121
 21
22.459241809752399
 31
0.0
  0
LINE
  5
4EC7
  8
DIM
 62
     0
 10
18.023698482270639
 20
19.34918778921994
 30
0.0
 11
18.023698482270639
 21
22.459241809752399
 31
0.0
  0
LINE
  5
4EC8
  8
DIM
 62
     0
 10
19.86701389210312
 20
22.273241809752399
 30
0.0
 11
20.22701389210312
 21
22.273241809752399
 31
0.0
  0
LINE
  5
4EC9
  8
DIM
 62
     0
 10
17.66369848227064
 20
22.273241809752399
 30
0.0
 11
16.97193925794522
 21
22.273241809752399
 31
0.0
  0
SOLID
  5
4ECA
  8
DIM
 62
     0
 10
19.86701389210312
 20
22.333241809752401
 30
0.0
 11
19.86701389210312
 21
22.2132418097524
 31
0.0
 12
19.507013892103121
 22
22.273241809752399
 32
0.0
 13
19.507013892103121
 23
22.273241809752399
 33
0.0
  0
SOLID
  5
4ECB
  8
DIM
 62
     0
 10
17.66369848227064
 20
22.333241809752401
 30
0.0
 11
17.66369848227064
 21
22.2132418097524
 31
0.0
 12
18.023698482270639
 22
22.273241809752399
 32
0.0
 13
18.023698482270639
 23
22.273241809752399
 33
0.0
  0
TEXT
  5
4ECC
  8
OBJECT
 62
     0
 10
16.10443925794522
 20
22.148241809752399
 30
0.0
 40
0.25
  1
1.483
 41
0.75
  0
POINT
  5
4ECD
  8
DEFPOINTS
 62
     0
 10
19.507013892103121
 20
21.86554620915075
 30
0.0
  0
POINT
  5
4ECE
  8
DEFPOINTS
 62
     0
 10
18.023698482270639
 20
19.22418778921994
 30
0.0
  0
POINT
  5
4ECF
  8
DEFPOINTS
 62
     0
 10
18.023698482270639
 20
22.273241809752399
 30
0.0
  0
ENDBLK
  5
4EBA
  8
0
  0
ENDSEC
  0
SECTION
  2
ENTITIES
  0
TEXT
  5
2112
  8
TEXT
 10
0.6081616720811987
 20
29.969016806590432
 30
0.0
 40
0.25
  1
MATERIAL: BODY TOP & BOTTOM, REAR PANEL
 41
0.75
  0
TEXT
  5
2113
  8
TEXT
 10
0.6081616720811987
 20
28.524116780091681
 30
0.0
 40
0.25
  1
FINISH: BODY TOP & BOTTOM
 41
0.75
  0
TEXT
  5
2114
  8
TEXT
 10
1.871804660615392
 20
28.108878684801681
 30
0.0
 40
0.25
  1
REAR PANEL
 41
0.75
  0
TEXT
  5
2115
  8
TEXT
 10
1.871804660615392
 20
27.693640589511681
 30
0.0
 40
0.25
  1
SLOPE PANELS
 41
0.75
  0
TEXT
  5
2116
  8
TEXT
 10
9.0324483515060692
 20
28.518495179900139
 30
0.0
 40
0.25
  1
LIGHT GRAY
 41
0.75
  0
TEXT
  5
2117
  8
TEXT
 10
9.0324483515060692
 20
28.103257084610139
 30
0.0
 40
0.25
  1
DARK GRAY
 41
0.75
  0
TEXT
  5
2118
  8
TEXT
 10
9.0324483515060692
 20
27.688018989320138
 30
0.0
 40
0.25
  1
NATURAL
 41
0.75
  0
LINE
  5
2119
  8
TEXT
 10
7.6752020497959448
 20
29.969016806590432
 30
0.0
 11
8.8920435155376296
 21
29.969016806590432
 31
0.0
  0
LINE
  5
211A
  8
TEXT
 10
5.1245153782290478
 20
28.518495179900139
 30
0.0
 11
8.8686426872436286
 21
28.518495179900139
 31
0.0
  0
LINE
  5
211B
  8
TEXT
 10
3.860872389694872
 20
28.097635410657791
 30
0.0
 11
8.8686426872436286
 21
28.097635410657791
 31
0.0
  0
TEXT
  5
2131
  8
TEXT
 10
13.83665667365695
 20
7.0803454679382263
 30
0.0
 40
0.25
  1
FOUR (4) M3 x 0.630" LG. SCREWS
 41
0.75
  0
TEXT
  5
2132
  8
TEXT
 10
14.202448012260721
 20
6.6651073726482251
 30
0.0
 40
0.25
  1
SUPPLIED FOR ASSEMBLING BODY
 41
0.75
  0
TEXT
  5
2133
  8
TEXT
 10
14.202448012260721
 20
6.2498692773582247
 30
0.0
 40
0.25
  1
TOP TO BOTTOM
 41
0.75
  0
TEXT
  5
2134
  8
TEXT
 10
13.83665667365695
 20
5.5422443957920713
 30
0.0
 40
0.25
  1
SIX (6) M3 x 0.315" LG. CSK. SCREWS
 41
0.75
  0
TEXT
  5
2135
  8
TEXT
 10
14.202448012260721
 20
5.1270063005020701
 30
0.0
 40
0.25
  1
SUPPLIED FOR ASSEMBLING SLOPE
 41
0.75
  0
TEXT
  5
2136
  8
TEXT
 10
14.202448012260721
 20
4.7117682052120697
 30
0.0
 40
0.25
  1
PANELS TO BODY TOP
 41
0.75
  0
TEXT
  5
2137
  8
TEXT
 10
13.83665667365695
 20
3.9066810861408068
 30
0.0
 40
0.25
  1
FOUR (4) RUBBER STICK-ON FEET SUPPLIED
 41
0.75
  0
TEXT
  5
2138
  8
TEXT
 10
13.83665667365695
 20
3.2070565822445332
 30
0.0
 40
0.25
  1
MOUNTING BOSSES USE EITHER M2.5 METRIC
 41
0.75
  0
TEXT
  5
2139
  8
TEXT
 10
14.202448012260721
 20
2.7918184869545319
 30
0.0
 40
0.25
  1
OR #4 STD. SHEET METAL SCREWS x 0.188"
 41
0.75
  0
TEXT
  5
213A
  8
TEXT
 10
14.202448012260721
 20
2.3765803916645321
 30
0.0
 40
0.25
  1
LG. (NOT SUPPLIED)
 41
0.75
  0
TEXT
  5
213B
  8
TEXT
 10
13.83665667365695
 20
1.7480980247754621
 30
0.0
 40
0.25
  1
NOTE: ALL DIMENSIONS HAVE %%P0.015
 41
0.75
  0
TEXT
  5
213C
  8
TEXT
 10
14.202448012260721
 20
1.3328599294854611
 30
0.0
 40
0.25
  1
TOLERANCE UNLESS OTHERWISE SPECIFIED
 41
0.75
  0
LINE
  5
24DC
  8
CENTER
 10
7.5309722846572269
 20
8.1386809273243408
 30
0.0
 11
7.5309722846572562
 21
16.638680927324351
 31
0.0
  0
LINE
  5
24DD
  8
OBJECT
 10
15.593164673499761
 20
16.638680927324341
 30
0.0
 11
15.593164673499761
 21
8.1386809273243408
 31
0.0
  0
LINE
  5
24DE
  8
OBJECT
 10
16.36316467349976
 20
16.180995144121908
 30
0.0
 11
16.36316467349976
 21
8.5963667105267803
 31
0.0
  0
LINE
  5
24DF
  8
OBJECT
 10
15.93716467349976
 20
16.627348753855589
 30
0.0
 11
15.93716467349976
 21
8.1500131007930854
 31
0.0
  0
LINE
  5
24E0
  8
OBJECT
 10
15.499164673499759
 20
16.563680927324341
 30
0.0
 11
15.499164673499759
 21
8.2136809273243401
 31
0.0
  0
LINE
  5
24E1
  8
OBJECT
 10
11.89347228465722
 20
8.2636809273243408
 30
0.0
 11
11.89347228465722
 21
16.513680927324341
 31
0.0
  0
LINE
  5
24E2
  8
OBJECT
 10
11.94347228465722
 20
8.3266809273243396
 30
0.0
 11
11.94347228465722
 21
16.450680927324338
 31
0.0
  0
LINE
  5
24E3
  8
OBJECT
 10
3.1184722846572259
 20
8.3266809273243396
 30
0.0
 11
3.1184722846572259
 21
16.450680927324338
 31
0.0
  0
LINE
  5
24E4
  8
OBJECT
 10
3.1684722846572271
 20
8.2636809273243408
 30
0.0
 11
3.1684722846572271
 21
16.513680927324341
 31
0.0
  0
LINE
  5
24E5
  8
OBJECT
 10
12.01847228465722
 20
16.450680927324338
 30
0.0
 11
12.01847228465722
 21
8.3266809273243396
 31
0.0
  0
LINE
  5
24E6
  8
OBJECT
 10
3.0434722846572271
 20
8.3266809273243396
 30
0.0
 11
3.0434722846572271
 21
16.450680927324338
 31
0.0
  0
LINE
  5
24E7
  8
OBJECT
 10
11.329972284657231
 20
3.496124421516654
 30
0.0
 11
3.7319722846572239
 21
3.496124421516654
 31
0.0
  0
LINE
  5
24E8
  8
OBJECT
 10
11.28597228465723
 20
3.4021244215166528
 30
0.0
 11
3.7759722846572248
 21
3.4021244215166528
 31
0.0
  0
LINE
  5
24E9
  8
OBJECT
 10
11.941995799470289
 20
4.5901244215166548
 30
0.0
 11
3.1199487698441528
 21
4.5901244215166548
 31
0.0
  0
LINE
  5
24EA
  8
OBJECT
 10
11.28597228465723
 20
2.1521244215166528
 30
0.0
 11
3.7759722846572248
 21
2.1521244215166528
 31
0.0
  0
LINE
  5
24EB
  8
OBJECT
 10
11.329972284657231
 20
2.0581244215166552
 30
0.0
 11
3.7319722846572239
 21
2.0581244215166552
 31
0.0
  0
LINE
  5
24EC
  8
CENTER
 10
3.0434722846572271
 20
12.388680927324341
 30
0.0
 11
12.01847228465722
 21
12.388680927324341
 31
0.0
  0
LINE
  5
24ED
  8
OBJECT
 10
11.89347228465722
 20
8.2636809273243408
 30
0.0
 11
3.1684722846572271
 21
8.2636809273243408
 31
0.0
  0
LINE
  5
24EE
  8
OBJECT
 10
11.830472284657221
 20
8.2136809273243401
 30
0.0
 11
3.231472284657225
 21
8.2136809273243401
 31
0.0
  0
LINE
  5
24EF
  8
OBJECT
 10
12.00714011118847
 20
2.0161244215166572
 30
0.0
 11
3.0548044581259708
 21
2.0161244215166572
 31
0.0
  0
LINE
  5
24F0
  8
OBJECT
 10
11.56078650145478
 20
1.590124421516655
 30
0.0
 11
3.5011580678596621
 21
1.590124421516655
 31
0.0
  0
LINE
  5
24F1
  8
OBJECT
 10
11.830472284657221
 20
8.1386809273243408
 30
0.0
 11
3.231472284657225
 21
8.1386809273243408
 31
0.0
  0
CIRCLE
  5
24F2
  8
OBJECT
 10
3.9879722846572241
 20
8.7276809273243394
 30
0.0
 40
0.125
  0
CIRCLE
  5
24F3
  8
OBJECT
 10
3.9879722846572241
 20
8.7276809273243394
 30
0.0
 40
0.047
  0
LINE
  5
24F4
  8
OBJECT
 10
3.0434722846572271
 20
2.4001244215166539
 30
0.0
 11
3.1178592426070071
 21
4.5302881903122092
 31
0.0
  0
LINE
  5
24F5
  8
OBJECT
 10
3.7759722846572248
 20
2.4001244215166539
 30
0.0
 11
3.7759722846572248
 21
3.4021244215166528
 31
0.0
  0
LINE
  5
24F6
  8
OBJECT
 10
3.681972284657224
 20
2.4001244215166539
 30
0.0
 11
3.681972284657224
 21
3.4461244215166542
 31
0.0
  0
LINE
  5
24F7
  8
OBJECT
 10
3.7759722846572248
 20
2.3601244215166548
 30
0.0
 11
3.0434722846572271
 21
2.3601244215166548
 31
0.0
  0
LINE
  5
24F8
  8
OBJECT
 10
3.7759722846572248
 20
2.4001244215166571
 30
0.0
 11
3.0434722846572271
 21
2.4001244215166539
 31
0.0
  0
ARC
  5
24F9
  8
OBJECT
 10
3.5011580678596621
 20
1.6521244215166531
 30
0.0
 40
0.062
 50
224.99999999999989
 51
270.0
  0
ARC
  5
24FA
  8
OBJECT
 10
3.3043421333942429
 20
1.4453318066070999
 30
0.0
 40
0.3016521478289426
 50
28.685311934345719
 51
87.220059914346095
  0
LINE
  5
24FB
  8
OBJECT
 10
3.0671895874045769
 20
1.998411661104611
 30
0.0
 11
3.457317447426099
 21
1.6082838010830891
 31
0.0
  0
ARC
  5
24FC
  8
OBJECT
 10
3.111030207838144
 20
2.042252281538175
 30
0.0
 40
0.062
 50
180.99999999999989
 51
224.99999999999989
  0
LINE
  5
24FD
  8
OBJECT
 10
3.0434722846572271
 20
2.3601244215166548
 30
0.0
 11
3.0490396507384498
 21
2.0411702323390619
 31
0.0
  0
LINE
  5
24FE
  8
OBJECT
 10
3.118472284657229
 20
2.4001244215166539
 30
0.0
 11
3.118472284657229
 21
2.3601244215166548
 31
0.0
  0
LINE
  5
24FF
  8
OBJECT
 10
3.7209722846572291
 20
2.4001244215166539
 30
0.0
 11
3.7209722846572322
 21
2.3601244215166579
 31
0.0
  0
LINE
  5
2500
  8
OBJECT
 10
3.681972284657224
 20
2.3601244215166548
 30
0.0
 11
3.681972284657224
 21
2.108124421516655
 31
0.0
  0
LINE
  5
2501
  8
OBJECT
 10
3.7759722846572248
 20
2.3601244215166548
 30
0.0
 11
3.7759722846572248
 21
2.1521244215166528
 31
0.0
  0
ARC
  5
2502
  8
OBJECT
 10
3.1798214738821891
 20
4.5281244215166536
 30
0.0
 40
0.062
 50
90.0
 51
178.0
  0
CIRCLE
  5
2503
  8
OBJECT
 10
3.443972284657224
 20
8.5316809273243361
 30
0.0
 40
0.1675
  0
CIRCLE
  5
2504
  8
OBJECT
 10
3.443972284657224
 20
8.5316809273243361
 30
0.0
 40
0.0625
  0
ARC
  5
2505
  8
OBJECT
 10
3.231472284657225
 20
8.3266809273243396
 30
0.0
 40
0.188
 50
180.0
 51
270.0
  0
ARC
  5
2506
  8
OBJECT
 10
3.231472284657225
 20
8.3266809273243396
 30
0.0
 40
0.113
 50
180.0
 51
270.0
  0
LINE
  5
2507
  8
OBJECT
 10
3.2783484639067062
 20
8.55668092732434
 30
0.0
 11
3.1684722846572271
 21
8.5566809273243365
 31
0.0
  0
LINE
  5
2508
  8
OBJECT
 10
3.2783484639067062
 20
8.5066809273243393
 30
0.0
 11
3.1684722846572271
 21
8.5066809273243393
 31
0.0
  0
CIRCLE
  5
2509
  8
OBJECT
 10
3.633472284657226
 20
12.388680927324341
 30
0.0
 40
0.125
  0
CIRCLE
  5
250A
  8
OBJECT
 10
3.633472284657226
 20
12.388680927324341
 30
0.0
 40
0.047
  0
CIRCLE
  5
250B
  8
OBJECT
 10
7.5309722846572242
 20
11.01568092732434
 30
0.0
 40
0.125
  0
CIRCLE
  5
250C
  8
OBJECT
 10
7.5309722846572242
 20
11.01568092732434
 30
0.0
 40
0.047
  0
LINE
  5
250D
  8
OBJECT
 10
15.954877433911809
 20
8.1623982300716946
 30
0.0
 11
16.345005293933319
 21
8.5525260900932132
 31
0.0
  0
CIRCLE
  5
250F
  8
OBJECT
 10
11.07397228465722
 20
8.7276809273243394
 30
0.0
 40
0.047
  0
CIRCLE
  5
2510
  8
OBJECT
 10
11.07397228465722
 20
8.7276809273243394
 30
0.0
 40
0.125
  0
LINE
  5
2511
  8
OBJECT
 10
12.01847228465722
 20
2.4001244215166539
 30
0.0
 11
11.944085326707439
 21
4.5302881903122092
 31
0.0
  0
LINE
  5
2512
  8
OBJECT
 10
12.01847228465722
 20
2.4001244215166539
 30
0.0
 11
11.28597228465723
 21
2.4001244215166571
 31
0.0
  0
LINE
  5
2513
  8
OBJECT
 10
11.994754981909869
 20
1.9984116611046081
 30
0.0
 11
11.604627121888351
 21
1.6082838010830891
 31
0.0
  0
LINE
  5
2514
  8
OBJECT
 10
12.01847228465722
 20
2.3601244215166548
 30
0.0
 11
11.28597228465723
 21
2.3601244215166548
 31
0.0
  0
LINE
  5
2515
  8
OBJECT
 10
11.37997228465723
 20
2.4001244215166539
 30
0.0
 11
11.37997228465723
 21
3.4461244215166551
 31
0.0
  0
LINE
  5
2516
  8
OBJECT
 10
11.28597228465723
 20
2.4001244215166539
 30
0.0
 11
11.28597228465723
 21
3.4021244215166528
 31
0.0
  0
ARC
  5
2517
  8
OBJECT
 10
11.56078650145478
 20
1.6521244215166531
 30
0.0
 40
0.062
 50
270.0
 51
315.0
  0
ARC
  5
2518
  8
OBJECT
 10
11.7576024359202
 20
1.4453318066070999
 30
0.0
 40
0.3016521478289426
 50
92.779940085653905
 51
151.3146880656542
  0
LINE
  5
2519
  8
OBJECT
 10
11.340972284657219
 20
2.4001244215166539
 30
0.0
 11
11.340972284657219
 21
2.3601244215166579
 31
0.0
  0
LINE
  5
251A
  8
OBJECT
 10
11.37997228465723
 20
2.3601244215166548
 30
0.0
 11
11.37997228465723
 21
2.108124421516655
 31
0.0
  0
LINE
  5
251B
  8
OBJECT
 10
11.28597228465723
 20
2.3601244215166548
 30
0.0
 11
11.28597228465723
 21
2.1521244215166528
 31
0.0
  0
LINE
  5
251C
  8
OBJECT
 10
11.94347228465722
 20
2.4001244215166539
 30
0.0
 11
11.94347228465722
 21
2.3601244215166548
 31
0.0
  0
ARC
  5
251D
  8
OBJECT
 10
11.9509143614763
 20
2.042252281538175
 30
0.0
 40
0.062
 50
315.00000000000011
 51
359.0
  0
LINE
  5
251E
  8
OBJECT
 10
12.01847228465722
 20
2.3601244215166548
 30
0.0
 11
12.012904918576
 21
2.0411702323390619
 31
0.0
  0
LINE
  5
251F
  8
OBJECT
 10
11.78359610540774
 20
8.5066809273243393
 30
0.0
 11
11.89347228465722
 21
8.5066809273243393
 31
0.0
  0
LINE
  5
2520
  8
OBJECT
 10
11.78359610540774
 20
8.55668092732434
 30
0.0
 11
11.89347228465722
 21
8.5566809273243365
 31
0.0
  0
CIRCLE
  5
2521
  8
OBJECT
 10
11.617972284657229
 20
8.5316809273243361
 30
0.0
 40
0.0625
  0
CIRCLE
  5
2522
  8
OBJECT
 10
11.617972284657229
 20
8.5316809273243361
 30
0.0
 40
0.1675
  0
ARC
  5
2523
  8
OBJECT
 10
11.882123095432259
 20
4.5281244215166536
 30
0.0
 40
0.062
 50
2.0000000000000151
 51
90.0
  0
ARC
  5
2524
  8
OBJECT
 10
11.830472284657221
 20
8.3266809273243396
 30
0.0
 40
0.113
 50
270.0
 51
0.000000000000007
  0
ARC
  5
2525
  8
OBJECT
 10
11.830472284657221
 20
8.3266809273243396
 30
0.0
 40
0.188
 50
270.0
 51
0.000000000000007
  0
LINE
  5
2526
  8
OBJECT
 10
15.593164673499761
 20
8.1386809273243408
 30
0.0
 11
15.91211886267735
 21
8.1442482934055604
 31
0.0
  0
LINE
  5
2527
  8
OBJECT
 10
15.499164673499759
 20
8.2136809273243401
 30
0.0
 11
15.593164673499761
 21
8.2136809273243401
 31
0.0
  0
ARC
  5
2528
  8
OBJECT
 10
15.911036813478241
 20
8.2062388505052581
 30
0.0
 40
0.062
 50
270.99999999999989
 51
315.0
  0
LINE
  5
2529
  8
OBJECT
 10
15.464164673499759
 20
8.6991809273243383
 30
0.0
 11
15.49916467349977
 21
8.6991809273243401
 31
0.0
  0
LINE
  5
252A
  8
OBJECT
 10
15.464164673499759
 20
8.364180927324341
 30
0.0
 11
15.49916467349977
 21
8.364180927324341
 31
0.0
  0
LINE
  5
252B
  8
OBJECT
 10
15.464164673499759
 20
8.6991809273243383
 30
0.0
 11
15.464164673499759
 21
8.364180927324341
 31
0.0
  0
CIRCLE
  5
252C
  8
OBJECT
 10
11.42847228465722
 20
12.388680927324341
 30
0.0
 40
0.125
  0
CIRCLE
  5
252D
  8
OBJECT
 10
11.42847228465722
 20
12.388680927324341
 30
0.0
 40
0.047
  0
ARC
  5
252E
  8
OBJECT
 10
16.301164673499759
 20
8.5963667105267803
 30
0.0
 40
0.062
 50
315.0
 51
0.0
  0
LINE
  5
2535
  8
OBJECT
 10
11.46297228465723
 20
19.29573417328109
 30
0.0
 11
3.5989722846572292
 21
19.29573417328109
 31
0.0
  0
LINE
  5
2536
  8
OBJECT
 10
11.46297228465723
 20
24.332769529015611
 30
0.0
 11
3.5989722846572318
 21
24.332769529015621
 31
0.0
  0
LINE
  5
2537
  8
OBJECT
 10
11.956472284657231
 20
24.720783783702419
 30
0.0
 11
3.1054722846572278
 21
24.720783783702419
 31
0.0
  0
LINE
  5
2538
  8
OBJECT
 10
3.231472284657225
 20
27.3670372221364
 30
0.0
 11
11.830472284657221
 21
27.3670372221364
 31
0.0
  0
LINE
  5
2539
  8
OBJECT
 10
3.681972284657224
 20
27.423037222136401
 30
0.0
 11
11.379972284657221
 21
27.423037222136401
 31
0.0
  0
LINE
  5
253A
  8
OBJECT
 10
11.830472284657221
 20
18.867037222136389
 30
0.0
 11
3.231472284657225
 21
18.867037222136389
 31
0.0
  0
LINE
  5
253B
  8
OBJECT
 10
3.7209722846572251
 20
16.638680927324341
 30
0.0
 11
11.340972284657219
 21
16.638680927324341
 31
0.0
  0
LINE
  5
253C
  8
OBJECT
 10
3.7209722846572251
 20
16.534680927324331
 30
0.0
 11
11.340972284657219
 21
16.534680927324331
 31
0.0
  0
LINE
  5
253D
  8
OBJECT
 10
3.681972284657224
 20
16.475680927324341
 30
0.0
 11
11.379972284657221
 21
16.475680927324341
 31
0.0
  0
LINE
  5
253E
  8
OBJECT
 10
3.681972284657224
 20
16.694680927324342
 30
0.0
 11
11.379972284657221
 21
16.694680927324342
 31
0.0
  0
LINE
  5
2540
  8
OBJECT
 10
3.5989722846572292
 20
19.29573417328109
 30
0.0
 11
3.5989722846572318
 21
24.332769529015621
 31
0.0
  0
LINE
  5
2541
  8
OBJECT
 10
3.0434722846572271
 20
19.055037222136392
 30
0.0
 11
3.0434722846572271
 21
27.179037222136401
 31
0.0
  0
CIRCLE
  5
2542
  8
OBJECT
 10
3.443972284657224
 20
16.24568092732434
 30
0.0
 40
0.0625
  0
CIRCLE
  5
2543
  8
OBJECT
 10
3.443972284657224
 20
16.24568092732434
 30
0.0
 40
0.1675
  0
LINE
  5
2544
  8
OBJECT
 10
3.2783484639067062
 20
16.220680927324342
 30
0.0
 11
3.1684722846572271
 21
16.220680927324342
 31
0.0
  0
CIRCLE
  5
2545
  8
OBJECT
 10
3.9879722846572241
 20
16.049680927324331
 30
0.0
 40
0.047
  0
CIRCLE
  5
2546
  8
OBJECT
 10
3.9879722846572241
 20
16.049680927324331
 30
0.0
 40
0.125
  0
LINE
  5
2547
  8
OBJECT
 10
3.7209722846572251
 20
16.513680927324341
 30
0.0
 11
3.1684722846572271
 21
16.513680927324341
 31
0.0
  0
LINE
  5
2548
  8
OBJECT
 10
3.7209722846572251
 20
16.563680927324341
 30
0.0
 11
3.231472284657225
 21
16.563680927324341
 31
0.0
  0
LINE
  5
2549
  8
OBJECT
 10
3.231472284657225
 20
16.638680927324341
 30
0.0
 11
3.681972284657224
 21
16.638680927324341
 31
0.0
  0
ARC
  5
254A
  8
OBJECT
 10
3.231472284657225
 20
16.450680927324338
 30
0.0
 40
0.188
 50
90.000000000000028
 51
180.0
  0
LINE
  5
254B
  8
OBJECT
 10
3.2783484639067062
 20
16.270680927324339
 30
0.0
 11
3.1684722846572271
 21
16.270680927324339
 31
0.0
  0
ARC
  5
254C
  8
OBJECT
 10
3.231472284657225
 20
16.450680927324338
 30
0.0
 40
0.113
 50
90.000000000000028
 51
180.0
  0
LINE
  5
254D
  8
OBJECT
 10
3.681972284657224
 20
16.513680927324341
 30
0.0
 11
3.681972284657224
 21
16.475680927324341
 31
0.0
  0
LINE
  5
254E
  8
OBJECT
 10
3.681972284657224
 20
16.694680927324342
 30
0.0
 11
3.681972284657224
 21
16.638680927324341
 31
0.0
  0
LINE
  5
254F
  8
OBJECT
 10
3.7209722846572251
 20
16.638680927324341
 30
0.0
 11
3.7209722846572251
 21
16.513680927324341
 31
0.0
  0
LINE
  5
2550
  8
OBJECT
 10
3.793972284657225
 20
16.534680927324342
 30
0.0
 11
3.793972284657225
 21
16.475680927324341
 31
0.0
  0
LINE
  5
2551
  8
OBJECT
 10
3.7759722846572248
 20
16.694680927324342
 30
0.0
 11
3.7759722846572248
 21
16.638680927324341
 31
0.0
  0
ARC
  5
2552
  8
OBJECT
 10
3.231472284657225
 20
19.055037222136392
 30
0.0
 40
0.188
 50
180.0
 51
270.0
  0
ARC
  5
2561
  8
OBJECT
 10
3.231472284657225
 20
27.179037222136401
 30
0.0
 40
0.188
 50
90.000000000000028
 51
180.0
  0
LINE
  5
2562
  8
OBJECT
 10
3.681972284657224
 20
27.423037222136401
 30
0.0
 11
3.681972284657224
 21
27.3670372221364
 31
0.0
  0
LINE
  5
2564
  8
OBJECT
 10
11.46297228465723
 20
19.29573417328109
 30
0.0
 11
11.46297228465723
 21
24.332769529015611
 31
0.0
  0
LINE
  5
2565
  8
OBJECT
 10
17.841295605759701
 20
18.957163777431951
 30
0.0
 11
16.825013892103119
 21
24.720783783702419
 31
0.0
  0
LINE
  5
2566
  8
OBJECT
 10
19.01501389210312
 20
27.3670372221364
 30
0.0
 11
19.01501389210312
 21
18.867037222136389
 31
0.0
  0
LINE
  5
2567
  8
OBJECT
 10
19.055013892103119
 20
27.3670372221364
 30
0.0
 11
19.055013892103119
 21
18.867037222136389
 31
0.0
  0
LINE
  5
2568
  8
OBJECT
 10
12.01847228465722
 20
27.179037222136401
 30
0.0
 11
12.01847228465722
 21
19.055037222136392
 31
0.0
  0
LINE
  5
2569
  8
OBJECT
 10
19.825013892103119
 20
26.90935143893396
 30
0.0
 11
19.825013892103119
 21
19.324723005338829
 31
0.0
  0
LINE
  5
256A
  8
OBJECT
 10
19.39901389210312
 20
27.355705048667652
 30
0.0
 11
19.39901389210312
 21
18.878369395605141
 31
0.0
  0
LINE
  5
256C
  8
OBJECT
 10
19.41672665251517
 20
18.89075452488375
 30
0.0
 11
19.806854512536681
 21
19.280882384905269
 31
0.0
  0
LINE
  5
256E
  8
OBJECT
 10
15.9548774339118
 20
16.61496362457698
 30
0.0
 11
16.345005293933319
 21
16.224835764555468
 31
0.0
  0
LINE
  5
256F
  8
OBJECT
 10
11.379972284657221
 20
16.638680927324341
 30
0.0
 11
11.830472284657221
 21
16.63868092732433
 31
0.0
  0
LINE
  5
2570
  8
OBJECT
 10
11.830472284657221
 20
16.563680927324341
 30
0.0
 11
11.340972284657219
 21
16.563680927324341
 31
0.0
  0
LINE
  5
2571
  8
OBJECT
 10
11.89347228465722
 20
16.513680927324341
 30
0.0
 11
11.340972284657219
 21
16.513680927324341
 31
0.0
  0
LINE
  5
2572
  8
OBJECT
 10
11.78359610540774
 20
16.270680927324339
 30
0.0
 11
11.89347228465722
 21
16.270680927324339
 31
0.0
  0
LINE
  5
2573
  8
OBJECT
 10
11.78359610540774
 20
16.220680927324342
 30
0.0
 11
11.89347228465722
 21
16.220680927324342
 31
0.0
  0
CIRCLE
  5
2574
  8
OBJECT
 10
11.617972284657229
 20
16.24568092732434
 30
0.0
 40
0.1675
  0
CIRCLE
  5
2575
  8
OBJECT
 10
11.617972284657229
 20
16.24568092732434
 30
0.0
 40
0.0625
  0
CIRCLE
  5
2576
  8
OBJECT
 10
11.07397228465722
 20
16.049680927324331
 30
0.0
 40
0.125
  0
CIRCLE
  5
2577
  8
OBJECT
 10
11.07397228465722
 20
16.049680927324331
 30
0.0
 40
0.047
  0
LINE
  5
2578
  8
OBJECT
 10
11.28597228465722
 20
16.694680927324342
 30
0.0
 11
11.28597228465722
 21
16.638680927324341
 31
0.0
  0
LINE
  5
2579
  8
OBJECT
 10
11.340972284657219
 20
16.638680927324341
 30
0.0
 11
11.340972284657219
 21
16.513680927324341
 31
0.0
  0
LINE
  5
257A
  8
OBJECT
 10
11.267972284657221
 20
16.534680927324342
 30
0.0
 11
11.267972284657221
 21
16.475680927324341
 31
0.0
  0
LINE
  5
257B
  8
OBJECT
 10
11.379972284657221
 20
16.694680927324342
 30
0.0
 11
11.379972284657221
 21
16.638680927324341
 31
0.0
  0
LINE
  5
257C
  8
OBJECT
 10
11.379972284657221
 20
16.513680927324341
 30
0.0
 11
11.379972284657221
 21
16.475680927324341
 31
0.0
  0
ARC
  5
257D
  8
OBJECT
 10
11.830472284657221
 20
16.450680927324338
 30
0.0
 40
0.188
 50
0.000000000000007
 51
89.999999999999986
  0
ARC
  5
257E
  8
OBJECT
 10
11.830472284657221
 20
16.450680927324338
 30
0.0
 40
0.113
 50
0.000000000000007
 51
89.999999999999986
  0
LINE
  5
257F
  8
OBJECT
 10
14.615164673499759
 20
16.41318092732433
 30
0.0
 11
15.49916467349977
 21
16.41318092732433
 31
0.0
  0
LINE
  5
2580
  8
OBJECT
 10
14.615164673499759
 20
16.07818092732434
 30
0.0
 11
15.49916467349977
 21
16.07818092732434
 31
0.0
  0
LINE
  5
2581
  8
OBJECT
 10
14.615164673499759
 20
16.41318092732433
 30
0.0
 11
14.615164673499759
 21
16.07818092732434
 31
0.0
  0
LINE
  5
2582
  8
OBJECT
 10
15.593164673499761
 20
16.714037184724528
 30
0.0
 11
15.89516467349976
 21
16.708765755116211
 31
0.0
  0
LINE
  5
2583
  8
OBJECT
 10
15.593164673499761
 20
16.638680927324341
 30
0.0
 11
15.91211886267735
 21
16.63311356124311
 31
0.0
  0
LINE
  5
2584
  8
OBJECT
 10
15.593164673499761
 20
16.638680927324341
 30
0.0
 11
15.593164673499761
 21
16.714037184724521
 31
0.0
  0
LINE
  5
2585
  8
OBJECT
 10
15.499164673499759
 20
16.563680927324341
 30
0.0
 11
15.593164673499761
 21
16.563680927324341
 31
0.0
  0
ARC
  5
2586
  8
OBJECT
 10
15.911036813478241
 20
16.571123004143409
 30
0.0
 40
0.062
 50
45.000000000000092
 51
88.999999999999787
  0
LINE
  5
2587
  8
OBJECT
 10
15.89516467349976
 20
16.708765755116211
 30
0.0
 11
15.89516467349976
 21
16.633409497716009
 31
0.0
  0
ARC
  5
258C
  8
OBJECT
 10
11.830472284657221
 20
19.055037222136392
 30
0.0
 40
0.188
 50
270.0
 51
0.000000000000007
  0
LINE
  5
258D
  8
OBJECT
 10
19.01501389210312
 20
18.867037222136389
 30
0.0
 11
17.900189917650899
 21
18.905967733172108
 31
0.0
  0
LINE
  5
258E
  8
OBJECT
 10
19.055013892103119
 20
18.867037222136389
 30
0.0
 11
19.373968081280712
 21
18.872604588217619
 31
0.0
  0
LINE
  5
258F
  8
OBJECT
 10
19.01501389210312
 20
18.942037222136399
 30
0.0
 11
19.055013892103119
 21
18.942037222136399
 31
0.0
  0
ARC
  5
2590
  8
OBJECT
 10
19.372886032081599
 20
18.93459514531731
 30
0.0
 40
0.062
 50
270.99999999999989
 51
315.0
  0
ARC
  5
2591
  8
OBJECT
 10
16.301164673499759
 20
16.180995144121908
 30
0.0
 40
0.062
 50
0.0
 51
45.000000000000377
  0
LINE
  5
2593
  8
OBJECT
 10
19.416726652515159
 20
27.343319919389039
 30
0.0
 11
19.806854512536681
 21
26.953192059367531
 31
0.0
  0
LINE
  5
2597
  8
OBJECT
 10
16.825013892103119
 20
27.290560736949441
 30
0.0
 11
16.825013892103119
 21
24.720783783702419
 31
0.0
  0
LINE
  5
25A0
  8
OBJECT
 10
11.379972284657221
 20
27.423037222136401
 30
0.0
 11
11.379972284657221
 21
27.3670372221364
 31
0.0
  0
ARC
  5
25A1
  8
OBJECT
 10
11.830472284657221
 20
27.179037222136401
 30
0.0
 40
0.188
 50
0.000000000000007
 51
89.999999999999986
  0
LINE
  5
25A2
  8
OBJECT
 10
19.01501389210312
 20
27.442393479536591
 30
0.0
 11
17.91901389210312
 21
27.404120316173628
 31
0.0
  0
LINE
  5
25A3
  8
OBJECT
 10
19.01501389210312
 20
27.3670372221364
 30
0.0
 11
16.884850123307562
 21
27.292650264186591
 31
0.0
  0
LINE
  5
25A4
  8
OBJECT
 10
17.91901389210312
 20
27.404120316173628
 30
0.0
 11
17.91901389210312
 21
27.32876405877342
 31
0.0
  0
LINE
  5
25A5
  8
OBJECT
 10
19.055013892103119
 20
27.442393479536591
 30
0.0
 11
19.357013892103119
 21
27.437122049928259
 31
0.0
  0
LINE
  5
25A6
  8
OBJECT
 10
19.055013892103119
 20
27.3670372221364
 30
0.0
 11
19.373968081280712
 21
27.361469856055169
 31
0.0
  0
LINE
  5
25A7
  8
OBJECT
 10
19.01501389210312
 20
27.3670372221364
 30
0.0
 11
19.01501389210312
 21
27.442393479536591
 31
0.0
  0
LINE
  5
25A8
  8
OBJECT
 10
19.055013892103119
 20
27.3670372221364
 30
0.0
 11
19.055013892103119
 21
27.442393479536591
 31
0.0
  0
LINE
  5
25A9
  8
OBJECT
 10
19.01501389210312
 20
27.2920372221364
 30
0.0
 11
19.055013892103119
 21
27.2920372221364
 31
0.0
  0
LINE
  5
25AA
  8
OBJECT
 10
19.357013892103119
 20
27.437122049928259
 30
0.0
 11
19.357013892103119
 21
27.361765792528072
 31
0.0
  0
ARC
  5
25AB
  8
OBJECT
 10
19.372886032081599
 20
27.299479298955479
 30
0.0
 40
0.062
 50
45.000000000000092
 51
88.999999999999787
  0
ARC
  5
25AC
  8
OBJECT
 10
19.763013892103121
 20
26.90935143893396
 30
0.0
 40
0.062
 50
0.0
 51
45.000000000000377
  0
ARC
  5
25B1
  8
OBJECT
 10
17.90235368644645
 20
18.967929964447301
 30
0.0
 40
0.062
 50
190.0
 51
268.00000000000011
  0
LINE
  5
25B2
  8
OBJECT
 10
14.860013892103121
 20
27.162068720860091
 30
0.0
 11
14.860013892103121
 21
25.314655173331289
 31
0.0
  0
LINE
  5
25B6
  8
OBJECT
 10
16.825013892103119
 20
24.74056073694944
 30
0.0
 11
16.825013892103119
 21
24.74056073694944
 31
0.0
  0
LINE
  5
25B7
  8
OBJECT
 10
16.825013892103119
 20
24.74056073694944
 30
0.0
 11
16.825013892103119
 21
24.74056073694944
 31
0.0
  0
LINE
  5
25B8
  8
OBJECT
 10
16.825013892103119
 20
24.74056073694944
 30
0.0
 11
14.90596711130677
 21
25.254767772101371
 31
0.0
  0
LINE
  5
25DD
  8
OBJECT
 10
11.81350378338097
 20
6.5551244215166546
 30
0.0
 11
3.2484407859334752
 21
6.5551244215166546
 31
0.0
  0
LINE
  5
25DE
  8
OBJECT
 10
3.1199487698441528
 20
4.5901244215166548
 30
0.0
 11
3.1864785546582901
 21
6.4952881903122091
 31
0.0
  0
LINE
  5
25DF
  8
OBJECT
 10
11.941995799470289
 20
4.5901244215166548
 30
0.0
 11
11.875466014656149
 21
6.4952881903122091
 31
0.0
  0
ARC
  5
25E0
  8
OBJECT
 10
3.2484407859334752
 20
6.4931244215166544
 30
0.0
 40
0.062
 50
90.0
 51
178.0
  0
ARC
  5
25E1
  8
OBJECT
 10
11.81350378338097
 20
6.4931244215166544
 30
0.0
 40
0.062
 50
1.9999999999999769
 51
90.0
  0
LINE
  5
25E2
  8
OBJECT
 10
11.811376487419009
 20
27.22194142489812
 30
0.0
 11
3.2505680818954401
 21
27.22194142489812
 31
0.0
  0
LINE
  5
25E3
  8
OBJECT
 10
11.811376487419009
 20
25.267080900076589
 30
0.0
 11
3.2505680818954401
 21
25.267080900076589
 31
0.0
  0
LINE
  5
25E4
  8
OBJECT
 10
12.01847228465722
 20
24.74056073694944
 30
0.0
 11
3.0434722846572271
 21
24.74056073694944
 31
0.0
  0
LINE
  5
25E5
  8
OBJECT
 10
11.87337648741901
 20
25.32908090007659
 30
0.0
 11
11.87337648741901
 21
27.159941424898118
 31
0.0
  0
LINE
  5
25E6
  8
OBJECT
 10
3.1885680818954389
 20
25.32908090007659
 30
0.0
 11
3.1885680818954389
 21
27.159941424898118
 31
0.0
  0
LINE
  5
25E8
  8
OBJECT
 10
3.5989722846572318
 20
24.825194564697959
 30
0.0
 11
3.5989722846572318
 21
25.182447072328081
 31
0.0
  0
LINE
  5
25E9
  8
OBJECT
 10
11.46297228465723
 20
24.825194564697959
 30
0.0
 11
11.46297228465723
 21
25.18244707232807
 31
0.0
  0
LINE
  5
25EA
  8
OBJECT
 10
11.46297228465723
 20
25.18244707232807
 30
0.0
 11
3.5989722846572318
 21
25.182447072328081
 31
0.0
  0
LINE
  5
25EB
  8
OBJECT
 10
11.46297228465723
 20
24.825194564697959
 30
0.0
 11
3.5989722846572318
 21
24.825194564697959
 31
0.0
  0
ARC
  5
25EC
  8
OBJECT
 10
14.92201389210312
 20
27.162068720860091
 30
0.0
 40
0.062
 50
92.000000000000867
 51
180.0
  0
ARC
  5
25ED
  8
OBJECT
 10
14.92201389210312
 20
25.314655173331289
 30
0.0
 40
0.062
 50
180.0
 51
254.99999999999989
  0
ARC
  5
25EE
  8
OBJECT
 10
16.88701389210312
 20
27.230688032911399
 30
0.0
 40
0.062
 50
92.000000000000796
 51
180.0
  0
LINE
  5
25EF
  8
OBJECT
 10
16.825013892103119
 20
27.290560736949441
 30
0.0
 11
14.91985012330756
 21
27.224030952135269
 31
0.0
  0
POLYLINE
  5
2609
  8
OBJECT
 10
11.30497228465723
 20
25.003861931207329
 30
0.0
 66
     1
 70
     8
  0
VERTEX
  8
0
  5
5747
 10
11.3050
 20
25.0039
 30
0.000000
  70
    32
  0
VERTEX
  8
0
  5
5748
 10
11.3048
 20
25.0053
 30
0.000000
  70
    32
  0
VERTEX
  8
0
  5
5749
 10
11.3044
 20
25.0068
 30
0.000000
  70
    32
  0
VERTEX
  8
0
  5
574A
 10
11.3037
 20
25.0083
 30
0.000000
  70
    32
  0
VERTEX
  8
0
  5
574B
 10
11.3027
 20
25.0098
 30
0.000000
  70
    32
  0
VERTEX
  8
0
  5
574C
 10
11.3015
 20
25.0112
 30
0.000000
  70
    32
  0
VERTEX
  8
0
  5
574D
 10
11.2999
 20
25.0127
 30
0.000000
  70
    32
  0
VERTEX
  8
0
  5
574E
 10
11.2981
 20
25.0141
 30
0.000000
  70
    32
  0
VERTEX
  8
0
  5
574F
 10
11.2961
 20
25.0155
 30
0.000000
  70
    32
  0
VERTEX
  8
0
  5
5750
 10
11.2937
 20
25.0168
 30
0.000000
  70
    32
  0
VERTEX
  8
0
  5
5751
 10
11.2912
 20
25.0181
 30
0.000000
  70
    32
  0
VERTEX
  8
0
  5
5752
 10
11.2883
 20
25.0194
 30
0.000000
  70
    32
  0
VERTEX
  8
0
  5
5753
 10
11.2853
 20
25.0207
 30
0.000000
  70
    32
  0
VERTEX
  8
0
  5
5754
 10
11.2819
 20
25.0219
 30
0.000000
  70
    32
  0
VERTEX
  8
0
  5
5755
 10
11.2784
 20
25.0231
 30
0.000000
  70
    32
  0
VERTEX
  8
0
  5
5756
 10
11.2747
 20
25.0242
 30
0.000000
  70
    32
  0
VERTEX
  8
0
  5
5757
 10
11.2707
 20
25.0253
 30
0.000000
  70
    32
  0
VERTEX
  8
0
  5
5758
 10
11.2665
 20
25.0263
 30
0.000000
  70
    32
  0
VERTEX
  8
0
  5
5759
 10
11.2622
 20
25.0273
 30
0.000000
  70
    32
  0
VERTEX
  8
0
  5
575A
 10
11.2577
 20
25.0282
 30
0.000000
  70
    32
  0
VERTEX
  8
0
  5
575B
 10
11.2530
 20
25.0290
 30
0.000000
  70
    32
  0
VERTEX
  8
0
  5
575C
 10
11.2481
 20
25.0298
 30
0.000000
  70
    32
  0
VERTEX
  8
0
  5
575D
 10
11.2431
 20
25.0306
 30
0.000000
  70
    32
  0
VERTEX
  8
0
  5
575E
 10
11.2380
 20
25.0312
 30
0.000000
  70
    32
  0
VERTEX
  8
0
  5
575F
 10
11.2327
 20
25.0318
 30
0.000000
  70
    32
  0
VERTEX
  8
0
  5
5760
 10
11.2274
 20
25.0324
 30
0.000000
  70
    32
  0
VERTEX
  8
0
  5
5761
 10
11.2219
 20
25.0328
 30
0.000000
  70
    32
  0
VERTEX
  8
0
  5
5762
 10
11.2164
 20
25.0332
 30
0.000000
  70
    32
  0
VERTEX
  8
0
  5
5763
 10
11.2108
 20
25.0336
 30
0.000000
  70
    32
  0
VERTEX
  8
0
  5
5764
 10
11.2051
 20
25.0338
 30
0.000000
  70
    32
  0
VERTEX
  8
0
  5
5765
 10
11.1994
 20
25.0340
 30
0.000000
  70
    32
  0
VERTEX
  8
0
  5
5766
 10
11.1937
 20
25.0341
 30
0.000000
  70
    32
  0
VERTEX
  8
0
  5
5767
 10
11.1880
 20
25.0341
 30
0.000000
  70
    32
  0
VERTEX
  8
0
  5
5768
 10
11.1822
 20
25.0341
 30
0.000000
  70
    32
  0
VERTEX
  8
0
  5
5769
 10
11.1765
 20
25.0340
 30
0.000000
  70
    32
  0
VERTEX
  8
0
  5
576A
 10
11.1708
 20
25.0338
 30
0.000000
  70
    32
  0
VERTEX
  8
0
  5
576B
 10
11.1651
 20
25.0336
 30
0.000000
  70
    32
  0
VERTEX
  8
0
  5
576C
 10
11.1595
 20
25.0332
 30
0.000000
  70
    32
  0
VERTEX
  8
0
  5
576D
 10
11.1540
 20
25.0328
 30
0.000000
  70
    32
  0
VERTEX
  8
0
  5
576E
 10
11.1486
 20
25.0324
 30
0.000000
  70
    32
  0
VERTEX
  8
0
  5
576F
 10
11.1432
 20
25.0318
 30
0.000000
  70
    32
  0
VERTEX
  8
0
  5
5770
 10
11.1379
 20
25.0312
 30
0.000000
  70
    32
  0
VERTEX
  8
0
  5
5771
 10
11.1328
 20
25.0306
 30
0.000000
  70
    32
  0
VERTEX
  8
0
  5
5772
 10
11.1278
 20
25.0298
 30
0.000000
  70
    32
  0
VERTEX
  8
0
  5
5773
 10
11.1230
 20
25.0290
 30
0.000000
  70
    32
  0
VERTEX
  8
0
  5
5774
 10
11.1183
 20
25.0282
 30
0.000000
  70
    32
  0
VERTEX
  8
0
  5
5775
 10
11.1137
 20
25.0273
 30
0.000000
  70
    32
  0
VERTEX
  8
0
  5
5776
 10
11.1094
 20
25.0263
 30
0.000000
  70
    32
  0
VERTEX
  8
0
  5
5777
 10
11.1052
 20
25.0253
 30
0.000000
  70
    32
  0
VERTEX
  8
0
  5
5778
 10
11.1013
 20
25.0242
 30
0.000000
  70
    32
  0
VERTEX
  8
0
  5
5779
 10
11.0975
 20
25.0231
 30
0.000000
  70
    32
  0
VERTEX
  8
0
  5
577A
 10
11.0940
 20
25.0219
 30
0.000000
  70
    32
  0
VERTEX
  8
0
  5
577B
 10
11.0907
 20
25.0207
 30
0.000000
  70
    32
  0
VERTEX
  8
0
  5
577C
 10
11.0876
 20
25.0194
 30
0.000000
  70
    32
  0
VERTEX
  8
0
  5
577D
 10
11.0848
 20
25.0181
 30
0.000000
  70
    32
  0
VERTEX
  8
0
  5
577E
 10
11.0822
 20
25.0168
 30
0.000000
  70
    32
  0
VERTEX
  8
0
  5
577F
 10
11.0799
 20
25.0155
 30
0.000000
  70
    32
  0
VERTEX
  8
0
  5
5780
 10
11.0778
 20
25.0141
 30
0.000000
  70
    32
  0
VERTEX
  8
0
  5
5781
 10
11.0760
 20
25.0127
 30
0.000000
  70
    32
  0
VERTEX
  8
0
  5
5782
 10
11.0745
 20
25.0112
 30
0.000000
  70
    32
  0
VERTEX
  8
0
  5
5783
 10
11.0732
 20
25.0098
 30
0.000000
  70
    32
  0
VERTEX
  8
0
  5
5784
 10
11.0722
 20
25.0083
 30
0.000000
  70
    32
  0
VERTEX
  8
0
  5
5785
 10
11.0715
 20
25.0068
 30
0.000000
  70
    32
  0
VERTEX
  8
0
  5
5786
 10
11.0711
 20
25.0053
 30
0.000000
  70
    32
  0
VERTEX
  8
0
  5
5787
 10
11.0710
 20
25.0039
 30
0.000000
  70
    32
  0
VERTEX
  8
0
  5
5788
 10
11.0711
 20
25.0024
 30
0.000000
  70
    32
  0
VERTEX
  8
0
  5
5789
 10
11.0715
 20
25.0009
 30
0.000000
  70
    32
  0
VERTEX
  8
0
  5
578A
 10
11.0722
 20
24.9994
 30
0.000000
  70
    32
  0
VERTEX
  8
0
  5
578B
 10
11.0732
 20
24.9980
 30
0.000000
  70
    32
  0
VERTEX
  8
0
  5
578C
 10
11.0745
 20
24.9965
 30
0.000000
  70
    32
  0
VERTEX
  8
0
  5
578D
 10
11.0760
 20
24.9951
 30
0.000000
  70
    32
  0
VERTEX
  8
0
  5
578E
 10
11.0778
 20
24.9937
 30
0.000000
  70
    32
  0
VERTEX
  8
0
  5
578F
 10
11.0799
 20
24.9923
 30
0.000000
  70
    32
  0
VERTEX
  8
0
  5
5790
 10
11.0822
 20
24.9909
 30
0.000000
  70
    32
  0
VERTEX
  8
0
  5
5791
 10
11.0848
 20
24.9896
 30
0.000000
  70
    32
  0
VERTEX
  8
0
  5
5792
 10
11.0876
 20
24.9883
 30
0.000000
  70
    32
  0
VERTEX
  8
0
  5
5793
 10
11.0907
 20
24.9870
 30
0.000000
  70
    32
  0
VERTEX
  8
0
  5
5794
 10
11.0940
 20
24.9858
 30
0.000000
  70
    32
  0
VERTEX
  8
0
  5
5795
 10
11.0975
 20
24.9847
 30
0.000000
  70
    32
  0
VERTEX
  8
0
  5
5796
 10
11.1013
 20
24.9835
 30
0.000000
  70
    32
  0
VERTEX
  8
0
  5
5797
 10
11.1052
 20
24.9824
 30
0.000000
  70
    32
  0
VERTEX
  8
0
  5
5798
 10
11.1094
 20
24.9814
 30
0.000000
  70
    32
  0
VERTEX
  8
0
  5
5799
 10
11.1137
 20
24.9805
 30
0.000000
  70
    32
  0
VERTEX
  8
0
  5
579A
 10
11.1183
 20
24.9795
 30
0.000000
  70
    32
  0
VERTEX
  8
0
  5
579B
 10
11.1230
 20
24.9787
 30
0.000000
  70
    32
  0
VERTEX
  8
0
  5
579C
 10
11.1278
 20
24.9779
 30
0.000000
  70
    32
  0
VERTEX
  8
0
  5
579D
 10
11.1328
 20
24.9772
 30
0.000000
  70
    32
  0
VERTEX
  8
0
  5
579E
 10
11.1379
 20
24.9765
 30
0.000000
  70
    32
  0
VERTEX
  8
0
  5
579F
 10
11.1432
 20
24.9759
 30
0.000000
  70
    32
  0
VERTEX
  8
0
  5
57A0
 10
11.1486
 20
24.9754
 30
0.000000
  70
    32
  0
VERTEX
  8
0
  5
57A1
 10
11.1540
 20
24.9749
 30
0.000000
  70
    32
  0
VERTEX
  8
0
  5
57A2
 10
11.1595
 20
24.9745
 30
0.000000
  70
    32
  0
VERTEX
  8
0
  5
57A3
 10
11.1651
 20
24.9742
 30
0.000000
  70
    32
  0
VERTEX
  8
0
  5
57A4
 10
11.1708
 20
24.9739
 30
0.000000
  70
    32
  0
VERTEX
  8
0
  5
57A5
 10
11.1765
 20
24.9737
 30
0.000000
  70
    32
  0
VERTEX
  8
0
  5
57A6
 10
11.1822
 20
24.9736
 30
0.000000
  70
    32
  0
VERTEX
  8
0
  5
57A7
 10
11.1880
 20
24.9736
 30
0.000000
  70
    32
  0
VERTEX
  8
0
  5
57A8
 10
11.1937
 20
24.9736
 30
0.000000
  70
    32
  0
VERTEX
  8
0
  5
57A9
 10
11.1994
 20
24.9737
 30
0.000000
  70
    32
  0
VERTEX
  8
0
  5
57AA
 10
11.2051
 20
24.9739
 30
0.000000
  70
    32
  0
VERTEX
  8
0
  5
57AB
 10
11.2108
 20
24.9742
 30
0.000000
  70
    32
  0
VERTEX
  8
0
  5
57AC
 10
11.2164
 20
24.9745
 30
0.000000
  70
    32
  0
VERTEX
  8
0
  5
57AD
 10
11.2219
 20
24.9749
 30
0.000000
  70
    32
  0
VERTEX
  8
0
  5
57AE
 10
11.2274
 20
24.9754
 30
0.000000
  70
    32
  0
VERTEX
  8
0
  5
57AF
 10
11.2327
 20
24.9759
 30
0.000000
  70
    32
  0
VERTEX
  8
0
  5
57B0
 10
11.2380
 20
24.9765
 30
0.000000
  70
    32
  0
VERTEX
  8
0
  5
57B1
 10
11.2431
 20
24.9772
 30
0.000000
  70
    32
  0
VERTEX
  8
0
  5
57B2
 10
11.2481
 20
24.9779
 30
0.000000
  70
    32
  0
VERTEX
  8
0
  5
57B3
 10
11.2530
 20
24.9787
 30
0.000000
  70
    32
  0
VERTEX
  8
0
  5
57B4
 10
11.2577
 20
24.9795
 30
0.000000
  70
    32
  0
VERTEX
  8
0
  5
57B5
 10
11.2622
 20
24.9805
 30
0.000000
  70
    32
  0
VERTEX
  8
0
  5
57B6
 10
11.2665
 20
24.9814
 30
0.000000
  70
    32
  0
VERTEX
  8
0
  5
57B7
 10
11.2707
 20
24.9824
 30
0.000000
  70
    32
  0
VERTEX
  8
0
  5
57B8
 10
11.2747
 20
24.9835
 30
0.000000
  70
    32
  0
VERTEX
  8
0
  5
57B9
 10
11.2784
 20
24.9847
 30
0.000000
  70
    32
  0
VERTEX
  8
0
  5
57BA
 10
11.2819
 20
24.9858
 30
0.000000
  70
    32
  0
VERTEX
  8
0
  5
57BB
 10
11.2853
 20
24.9870
 30
0.000000
  70
    32
  0
VERTEX
  8
0
  5
57BC
 10
11.2883
 20
24.9883
 30
0.000000
  70
    32
  0
VERTEX
  8
0
  5
57BD
 10
11.2912
 20
24.9896
 30
0.000000
  70
    32
  0
VERTEX
  8
0
  5
57BE
 10
11.2937
 20
24.9909
 30
0.000000
  70
    32
  0
VERTEX
  8
0
  5
57BF
 10
11.2961
 20
24.9923
 30
0.000000
  70
    32
  0
VERTEX
  8
0
  5
57C0
 10
11.2981
 20
24.9937
 30
0.000000
  70
    32
  0
VERTEX
  8
0
  5
57C1
 10
11.2999
 20
24.9951
 30
0.000000
  70
    32
  0
VERTEX
  8
0
  5
57C2
 10
11.3015
 20
24.9965
 30
0.000000
  70
    32
  0
VERTEX
  8
0
  5
57C3
 10
11.3027
 20
24.9980
 30
0.000000
  70
    32
  0
VERTEX
  8
0
  5
57C4
 10
11.3037
 20
24.9994
 30
0.000000
  70
    32
  0
VERTEX
  8
0
  5
57C5
 10
11.3044
 20
25.0009
 30
0.000000
  70
    32
  0
VERTEX
  8
0
  5
57C6
 10
11.3048
 20
25.0024
 30
0.000000
  70
    32
  0
VERTEX
  8
0
  5
57C7
 10
11.3050
 20
25.0039
 30
0.000000
  70
    32
  0
SEQEND
  8
0
  5
57C8
  0
POLYLINE
  5
260A
  8
OBJECT
 10
3.9909722846572349
 20
25.003861931207329
 30
0.0
 66
     1
 70
     8
  0
VERTEX
  8
0
  5
57C9
 10
3.99097
 20
25.0039
 30
0.000000
  70
    32
  0
VERTEX
  8
0
  5
57CA
 10
3.99083
 20
25.0053
 30
0.000000
  70
    32
  0
VERTEX
  8
0
  5
57CB
 10
3.99041
 20
25.0068
 30
0.000000
  70
    32
  0
VERTEX
  8
0
  5
57CC
 10
3.98971
 20
25.0083
 30
0.000000
  70
    32
  0
VERTEX
  8
0
  5
57CD
 10
3.98872
 20
25.0098
 30
0.000000
  70
    32
  0
VERTEX
  8
0
  5
57CE
 10
3.98747
 20
25.0112
 30
0.000000
  70
    32
  0
VERTEX
  8
0
  5
57CF
 10
3.98593
 20
25.0127
 30
0.000000
  70
    32
  0
VERTEX
  8
0
  5
57D0
 10
3.98413
 20
25.0141
 30
0.000000
  70
    32
  0
VERTEX
  8
0
  5
57D1
 10
3.98207
 20
25.0155
 30
0.000000
  70
    32
  0
VERTEX
  8
0
  5
57D2
 10
3.97974
 20
25.0168
 30
0.000000
  70
    32
  0
VERTEX
  8
0
  5
57D3
 10
3.97716
 20
25.0181
 30
0.000000
  70
    32
  0
VERTEX
  8
0
  5
57D4
 10
3.97433
 20
25.0194
 30
0.000000
  70
    32
  0
VERTEX
  8
0
  5
57D5
 10
3.97125
 20
25.0207
 30
0.000000
  70
    32
  0
VERTEX
  8
0
  5
57D6
 10
3.96795
 20
25.0219
 30
0.000000
  70
    32
  0
VERTEX
  8
0
  5
57D7
 10
3.96441
 20
25.0231
 30
0.000000
  70
    32
  0
VERTEX
  8
0
  5
57D8
 10
3.96066
 20
25.0242
 30
0.000000
  70
    32
  0
VERTEX
  8
0
  5
57D9
 10
3.95670
 20
25.0253
 30
0.000000
  70
    32
  0
VERTEX
  8
0
  5
57DA
 10
3.95254
 20
25.0263
 30
0.000000
  70
    32
  0
VERTEX
  8
0
  5
57DB
 10
3.94820
 20
25.0273
 30
0.000000
  70
    32
  0
VERTEX
  8
0
  5
57DC
 10
3.94367
 20
25.0282
 30
0.000000
  70
    32
  0
VERTEX
  8
0
  5
57DD
 10
3.93897
 20
25.0290
 30
0.000000
  70
    32
  0
VERTEX
  8
0
  5
57DE
 10
3.93412
 20
25.0298
 30
0.000000
  70
    32
  0
VERTEX
  8
0
  5
57DF
 10
3.92913
 20
25.0306
 30
0.000000
  70
    32
  0
VERTEX
  8
0
  5
57E0
 10
3.92400
 20
25.0312
 30
0.000000
  70
    32
  0
VERTEX
  8
0
  5
57E1
 10
3.91875
 20
25.0318
 30
0.000000
  70
    32
  0
VERTEX
  8
0
  5
57E2
 10
3.91339
 20
25.0324
 30
0.000000
  70
    32
  0
VERTEX
  8
0
  5
57E3
 10
3.90794
 20
25.0328
 30
0.000000
  70
    32
  0
VERTEX
  8
0
  5
57E4
 10
3.90240
 20
25.0332
 30
0.000000
  70
    32
  0
VERTEX
  8
0
  5
57E5
 10
3.89680
 20
25.0336
 30
0.000000
  70
    32
  0
VERTEX
  8
0
  5
57E6
 10
3.89114
 20
25.0338
 30
0.000000
  70
    32
  0
VERTEX
  8
0
  5
57E7
 10
3.88544
 20
25.0340
 30
0.000000
  70
    32
  0
VERTEX
  8
0
  5
57E8
 10
3.87971
 20
25.0341
 30
0.000000
  70
    32
  0
VERTEX
  8
0
  5
57E9
 10
3.87397
 20
25.0341
 30
0.000000
  70
    32
  0
VERTEX
  8
0
  5
57EA
 10
3.86823
 20
25.0341
 30
0.000000
  70
    32
  0
VERTEX
  8
0
  5
57EB
 10
3.86250
 20
25.0340
 30
0.000000
  70
    32
  0
VERTEX
  8
0
  5
57EC
 10
3.85680
 20
25.0338
 30
0.000000
  70
    32
  0
VERTEX
  8
0
  5
57ED
 10
3.85115
 20
25.0336
 30
0.000000
  70
    32
  0
VERTEX
  8
0
  5
57EE
 10
3.84554
 20
25.0332
 30
0.000000
  70
    32
  0
VERTEX
  8
0
  5
57EF
 10
3.84001
 20
25.0328
 30
0.000000
  70
    32
  0
VERTEX
  8
0
  5
57F0
 10
3.83456
 20
25.0324
 30
0.000000
  70
    32
  0
VERTEX
  8
0
  5
57F1
 10
3.82920
 20
25.0318
 30
0.000000
  70
    32
  0
VERTEX
  8
0
  5
57F2
 10
3.82395
 20
25.0312
 30
0.000000
  70
    32
  0
VERTEX
  8
0
  5
57F3
 10
3.81882
 20
25.0306
 30
0.000000
  70
    32
  0
VERTEX
  8
0
  5
57F4
 10
3.81382
 20
25.0298
 30
0.000000
  70
    32
  0
VERTEX
  8
0
  5
57F5
 10
3.80897
 20
25.0290
 30
0.000000
  70
    32
  0
VERTEX
  8
0
  5
57F6
 10
3.80428
 20
25.0282
 30
0.000000
  70
    32
  0
VERTEX
  8
0
  5
57F7
 10
3.79975
 20
25.0273
 30
0.000000
  70
    32
  0
VERTEX
  8
0
  5
57F8
 10
3.79540
 20
25.0263
 30
0.000000
  70
    32
  0
VERTEX
  8
0
  5
57F9
 10
3.79124
 20
25.0253
 30
0.000000
  70
    32
  0
VERTEX
  8
0
  5
57FA
 10
3.78728
 20
25.0242
 30
0.000000
  70
    32
  0
VERTEX
  8
0
  5
57FB
 10
3.78353
 20
25.0231
 30
0.000000
  70
    32
  0
VERTEX
  8
0
  5
57FC
 10
3.78000
 20
25.0219
 30
0.000000
  70
    32
  0
VERTEX
  8
0
  5
57FD
 10
3.77669
 20
25.0207
 30
0.000000
  70
    32
  0
VERTEX
  8
0
  5
57FE
 10
3.77362
 20
25.0194
 30
0.000000
  70
    32
  0
VERTEX
  8
0
  5
57FF
 10
3.77079
 20
25.0181
 30
0.000000
  70
    32
  0
VERTEX
  8
0
  5
5800
 10
3.76821
 20
25.0168
 30
0.000000
  70
    32
  0
VERTEX
  8
0
  5
5801
 10
3.76588
 20
25.0155
 30
0.000000
  70
    32
  0
VERTEX
  8
0
  5
5802
 10
3.76381
 20
25.0141
 30
0.000000
  70
    32
  0
VERTEX
  8
0
  5
5803
 10
3.76201
 20
25.0127
 30
0.000000
  70
    32
  0
VERTEX
  8
0
  5
5804
 10
3.76048
 20
25.0112
 30
0.000000
  70
    32
  0
VERTEX
  8
0
  5
5805
 10
3.75922
 20
25.0098
 30
0.000000
  70
    32
  0
VERTEX
  8
0
  5
5806
 10
3.75824
 20
25.0083
 30
0.000000
  70
    32
  0
VERTEX
  8
0
  5
5807
 10
3.75754
 20
25.0068
 30
0.000000
  70
    32
  0
VERTEX
  8
0
  5
5808
 10
3.75711
 20
25.0053
 30
0.000000
  70
    32
  0
VERTEX
  8
0
  5
5809
 10
3.75697
 20
25.0039
 30
0.000000
  70
    32
  0
VERTEX
  8
0
  5
580A
 10
3.75711
 20
25.0024
 30
0.000000
  70
    32
  0
VERTEX
  8
0
  5
580B
 10
3.75754
 20
25.0009
 30
0.000000
  70
    32
  0
VERTEX
  8
0
  5
580C
 10
3.75824
 20
24.9994
 30
0.000000
  70
    32
  0
VERTEX
  8
0
  5
580D
 10
3.75922
 20
24.9980
 30
0.000000
  70
    32
  0
VERTEX
  8
0
  5
580E
 10
3.76048
 20
24.9965
 30
0.000000
  70
    32
  0
VERTEX
  8
0
  5
580F
 10
3.76201
 20
24.9951
 30
0.000000
  70
    32
  0
VERTEX
  8
0
  5
5810
 10
3.76381
 20
24.9937
 30
0.000000
  70
    32
  0
VERTEX
  8
0
  5
5811
 10
3.76588
 20
24.9923
 30
0.000000
  70
    32
  0
VERTEX
  8
0
  5
5812
 10
3.76821
 20
24.9909
 30
0.000000
  70
    32
  0
VERTEX
  8
0
  5
5813
 10
3.77079
 20
24.9896
 30
0.000000
  70
    32
  0
VERTEX
  8
0
  5
5814
 10
3.77362
 20
24.9883
 30
0.000000
  70
    32
  0
VERTEX
  8
0
  5
5815
 10
3.77669
 20
24.9870
 30
0.000000
  70
    32
  0
VERTEX
  8
0
  5
5816
 10
3.78000
 20
24.9858
 30
0.000000
  70
    32
  0
VERTEX
  8
0
  5
5817
 10
3.78353
 20
24.9847
 30
0.000000
  70
    32
  0
VERTEX
  8
0
  5
5818
 10
3.78728
 20
24.9835
 30
0.000000
  70
    32
  0
VERTEX
  8
0
  5
5819
 10
3.79124
 20
24.9824
 30
0.000000
  70
    32
  0
VERTEX
  8
0
  5
581A
 10
3.79540
 20
24.9814
 30
0.000000
  70
    32
  0
VERTEX
  8
0
  5
581B
 10
3.79975
 20
24.9805
 30
0.000000
  70
    32
  0
VERTEX
  8
0
  5
581C
 10
3.80428
 20
24.9795
 30
0.000000
  70
    32
  0
VERTEX
  8
0
  5
581D
 10
3.80897
 20
24.9787
 30
0.000000
  70
    32
  0
VERTEX
  8
0
  5
581E
 10
3.81382
 20
24.9779
 30
0.000000
  70
    32
  0
VERTEX
  8
0
  5
581F
 10
3.81882
 20
24.9772
 30
0.000000
  70
    32
  0
VERTEX
  8
0
  5
5820
 10
3.82395
 20
24.9765
 30
0.000000
  70
    32
  0
VERTEX
  8
0
  5
5821
 10
3.82920
 20
24.9759
 30
0.000000
  70
    32
  0
VERTEX
  8
0
  5
5822
 10
3.83456
 20
24.9754
 30
0.000000
  70
    32
  0
VERTEX
  8
0
  5
5823
 10
3.84001
 20
24.9749
 30
0.000000
  70
    32
  0
VERTEX
  8
0
  5
5824
 10
3.84554
 20
24.9745
 30
0.000000
  70
    32
  0
VERTEX
  8
0
  5
5825
 10
3.85115
 20
24.9742
 30
0.000000
  70
    32
  0
VERTEX
  8
0
  5
5826
 10
3.85680
 20
24.9739
 30
0.000000
  70
    32
  0
VERTEX
  8
0
  5
5827
 10
3.86250
 20
24.9737
 30
0.000000
  70
    32
  0
VERTEX
  8
0
  5
5828
 10
3.86823
 20
24.9736
 30
0.000000
  70
    32
  0
VERTEX
  8
0
  5
5829
 10
3.87397
 20
24.9736
 30
0.000000
  70
    32
  0
VERTEX
  8
0
  5
582A
 10
3.87971
 20
24.9736
 30
0.000000
  70
    32
  0
VERTEX
  8
0
  5
582B
 10
3.88544
 20
24.9737
 30
0.000000
  70
    32
  0
VERTEX
  8
0
  5
582C
 10
3.89114
 20
24.9739
 30
0.000000
  70
    32
  0
VERTEX
  8
0
  5
582D
 10
3.89680
 20
24.9742
 30
0.000000
  70
    32
  0
VERTEX
  8
0
  5
582E
 10
3.90240
 20
24.9745
 30
0.000000
  70
    32
  0
VERTEX
  8
0
  5
582F
 10
3.90794
 20
24.9749
 30
0.000000
  70
    32
  0
VERTEX
  8
0
  5
5830
 10
3.91339
 20
24.9754
 30
0.000000
  70
    32
  0
VERTEX
  8
0
  5
5831
 10
3.91875
 20
24.9759
 30
0.000000
  70
    32
  0
VERTEX
  8
0
  5
5832
 10
3.92400
 20
24.9765
 30
0.000000
  70
    32
  0
VERTEX
  8
0
  5
5833
 10
3.92913
 20
24.9772
 30
0.000000
  70
    32
  0
VERTEX
  8
0
  5
5834
 10
3.93412
 20
24.9779
 30
0.000000
  70
    32
  0
VERTEX
  8
0
  5
5835
 10
3.93897
 20
24.9787
 30
0.000000
  70
    32
  0
VERTEX
  8
0
  5
5836
 10
3.94367
 20
24.9795
 30
0.000000
  70
    32
  0
VERTEX
  8
0
  5
5837
 10
3.94820
 20
24.9805
 30
0.000000
  70
    32
  0
VERTEX
  8
0
  5
5838
 10
3.95254
 20
24.9814
 30
0.000000
  70
    32
  0
VERTEX
  8
0
  5
5839
 10
3.95670
 20
24.9824
 30
0.000000
  70
    32
  0
VERTEX
  8
0
  5
583A
 10
3.96066
 20
24.9835
 30
0.000000
  70
    32
  0
VERTEX
  8
0
  5
583B
 10
3.96441
 20
24.9847
 30
0.000000
  70
    32
  0
VERTEX
  8
0
  5
583C
 10
3.96795
 20
24.9858
 30
0.000000
  70
    32
  0
VERTEX
  8
0
  5
583D
 10
3.97125
 20
24.9870
 30
0.000000
  70
    32
  0
VERTEX
  8
0
  5
583E
 10
3.97433
 20
24.9883
 30
0.000000
  70
    32
  0
VERTEX
  8
0
  5
583F
 10
3.97716
 20
24.9896
 30
0.000000
  70
    32
  0
VERTEX
  8
0
  5
5840
 10
3.97974
 20
24.9909
 30
0.000000
  70
    32
  0
VERTEX
  8
0
  5
5841
 10
3.98207
 20
24.9923
 30
0.000000
  70
    32
  0
VERTEX
  8
0
  5
5842
 10
3.98413
 20
24.9937
 30
0.000000
  70
    32
  0
VERTEX
  8
0
  5
5843
 10
3.98593
 20
24.9951
 30
0.000000
  70
    32
  0
VERTEX
  8
0
  5
5844
 10
3.98747
 20
24.9965
 30
0.000000
  70
    32
  0
VERTEX
  8
0
  5
5845
 10
3.98872
 20
24.9980
 30
0.000000
  70
    32
  0
VERTEX
  8
0
  5
5846
 10
3.98971
 20
24.9994
 30
0.000000
  70
    32
  0
VERTEX
  8
0
  5
5847
 10
3.99041
 20
25.0009
 30
0.000000
  70
    32
  0
VERTEX
  8
0
  5
5848
 10
3.99083
 20
25.0024
 30
0.000000
  70
    32
  0
VERTEX
  8
0
  5
5849
 10
3.99097
 20
25.0039
 30
0.000000
  70
    32
  0
SEQEND
  8
0
  5
584A
  0
TEXT
  5
28F5
  8
TEXT
 10
4.7349658998714581
 20
30.586789370342512
 30
0.0
 40
0.375
  1
PLASTICASE
 41
0.75
 72
     1
 11
6.0474658998714581
 21
30.586789370342512
 31
0.0
  0
TEXT
  5
28F6
  8
TEXT
 10
15.87252315579069
 20
30.586789370342512
 30
0.0
 40
0.375
  1
PC-11495
 41
0.75
 72
     1
 11
16.856898155790692
 21
30.586789370342512
 31
0.0
  0
TEXT
  5
2A5F
  8
TEXT
 10
2.2809953486948471
 20
29.119500046493069
 30
0.0
 40
0.25
  1
LOWER SLOPE PANEL
 41
0.75
  0
LINE
  5
2A60
  8
TEXT
 10
5.6117625754249332
 20
29.119500046493069
 30
0.0
 11
8.8920435155376296
 21
29.119500046493069
 31
0.0
  0
TEXT
  5
2A61
  8
TEXT
 10
9.0558491798000667
 20
29.969016806590432
 30
0.0
 40
0.25
  1
ABS THERMOPLASTIC (UL94-HB RATED)
 41
0.75
  0
TEXT
  5
2A62
  8
TEXT
 10
9.0558491798000667
 20
29.12211820331412
 30
0.0
 40
0.25
  1
0.100 THK. ALUMINUM
 41
0.75
  0
LINE
  5
2A63
  8
TEXT
 10
4.1778082542521267
 20
27.701017481726279
 30
0.0
 11
8.8651180080820637
 21
27.701017481726279
 31
0.0
  0
LINE
  5
30E8
  8
DIM
 10
17.850013892103121
 20
18.643967615844499
 30
0.0
 11
17.850013892103121
 21
17.71967689263143
 31
0.0
  0
TEXT
  5
3A83
  8
TEXT
 10
9.0558491798000667
 20
29.55697725760481
 30
0.0
 40
0.25
  1
0.063 THK. ALUMINUM
 41
0.75
  0
TEXT
  5
3A84
  8
TEXT
 10
2.2809953486948471
 20
29.55116055447937
 30
0.0
 40
0.25
  1
UPPER SLOPE PANEL
 41
0.75
  0
LINE
  5
3A85
  8
TEXT
 10
5.5332126796468231
 20
29.55116055447937
 30
0.0
 11
8.8920435155376296
 21
29.55116055447937
 31
0.0
  0
TEXT
  5
3A88
  8
TEXT
 10
1.4839897206009589
 20
7.4868260708164414
 30
0.0
 40
0.25
  1
%%UBODY BOTTOM
 41
0.75
  0
TEXT
  5
3A89
  8
TEXT
 10
0.4711582734169042
 20
7.0992597975202676
 30
0.0
 40
0.25
  1
(WITH BODY TOP REMOVED)
 41
0.75
  0
TEXT
  5
3A8A
  8
TEXT
 10
2.5799230614875901
 20
0.4312340116426796
 30
0.0
 40
0.25
  1
%%UREAR VIEW
 41
0.75
  0
LINE
  5
3A8B
  8
HIDDEN
 10
11.823002171822869
 20
4.4721244215166553
 30
0.0
 11
11.316995799470289
 21
4.4721244215166553
 31
0.0
  0
LINE
  5
3A8C
  8
HIDDEN
 10
3.1684722846572302
 20
2.454124421516656
 30
0.0
 11
3.2430630482916061
 21
4.5901244215166548
 31
0.0
  0
LINE
  5
3A8E
  8
HIDDEN
 10
3.3289722846572261
 20
3.3381244215166488
 30
0.0
 11
3.3289722846572261
 21
4.4721244215166553
 31
0.0
  0
LINE
  5
3A8F
  8
HIDDEN
 10
3.558972284657222
 20
3.3381244215166488
 30
0.0
 11
3.558972284657222
 21
4.4721244215166553
 31
0.0
  0
LINE
  5
3A91
  8
HIDDEN
 10
3.3814722846572169
 20
3.3381244215166488
 30
0.0
 11
3.3814722846572169
 21
3.1221244215166482
 31
0.0
  0
LINE
  5
3A92
  8
HIDDEN
 10
3.5064722846572169
 20
3.3381244215166488
 30
0.0
 11
3.5064722846572169
 21
3.1221244215166482
 31
0.0
  0
LINE
  5
3A94
  8
HIDDEN
 10
3.1684722846572271
 20
2.454124421516656
 30
0.0
 11
3.1684722846572271
 21
2.008124421516654
 31
0.0
  0
LINE
  5
3A95
  8
HIDDEN
 10
3.1684722846572271
 20
2.3391244215166558
 30
0.0
 11
3.2764722846572201
 21
2.3391244215166558
 31
0.0
  0
LINE
  5
3A96
  8
HIDDEN
 10
3.7209722846572291
 20
2.4541244215166591
 30
0.0
 11
3.118472284657229
 21
2.4541244215166591
 31
0.0
  0
LINE
  5
3A97
  8
HIDDEN
 10
3.118472284657229
 20
2.454124421516656
 30
0.0
 11
3.118472284657229
 21
2.4001244215166539
 31
0.0
  0
LINE
  5
3A98
  8
HIDDEN
 10
3.1684722846572271
 20
2.008124421516654
 30
0.0
 11
3.4684722846572238
 21
1.7081244215166611
 31
0.0
  0
LINE
  5
3A99
  8
HIDDEN
 10
11.593472284657221
 20
1.7081244215166611
 30
0.0
 11
3.4684722846572238
 21
1.7081244215166611
 31
0.0
  0
LINE
  5
3A9A
  8
HIDDEN
 10
3.7209722846572291
 20
2.3601244215166548
 30
0.0
 11
3.7209722846572291
 21
2.0921244215166519
 31
0.0
  0
LINE
  5
3A9B
  8
HIDDEN
 10
11.340972284657219
 20
2.0921244215166519
 30
0.0
 11
3.7209722846572291
 21
2.0921244215166528
 31
0.0
  0
LINE
  5
3A9C
  8
HIDDEN
 10
3.7209722846572291
 20
2.4001244215166539
 30
0.0
 11
3.7209722846572291
 21
3.4621244215166529
 31
0.0
  0
LINE
  5
3A9D
  8
HIDDEN
 10
11.340972284657219
 20
3.4621244215166529
 30
0.0
 11
3.7209722846572291
 21
3.4621244215166529
 31
0.0
  0
LINE
  5
3A9E
  8
HIDDEN
 10
11.340972284657219
 20
2.4001244215166539
 30
0.0
 11
11.340972284657219
 21
3.4621244215166529
 31
0.0
  0
LINE
  5
3AA0
  8
HIDDEN
 10
11.68047228465722
 20
3.3381244215166488
 30
0.0
 11
11.68047228465722
 21
3.1221244215166482
 31
0.0
  0
LINE
  5
3AA1
  8
HIDDEN
 10
11.55547228465722
 20
3.3381244215166488
 30
0.0
 11
11.55547228465722
 21
3.1221244215166482
 31
0.0
  0
LINE
  5
3AA4
  8
HIDDEN
 10
11.50297228465722
 20
3.3381244215166488
 30
0.0
 11
11.50297228465722
 21
4.4721244215166553
 31
0.0
  0
LINE
  5
3AA5
  8
HIDDEN
 10
11.73297228465723
 20
3.3381244215166488
 30
0.0
 11
11.73297228465723
 21
4.4721244215166553
 31
0.0
  0
LINE
  5
3AA6
  8
HIDDEN
 10
11.89347228465722
 20
2.454124421516656
 30
0.0
 11
11.81888152102284
 21
4.5901244215166548
 31
0.0
  0
LINE
  5
3AA7
  8
HIDDEN
 10
11.94347228465721
 20
2.454124421516656
 30
0.0
 11
11.340972284657219
 21
2.454124421516656
 31
0.0
  0
LINE
  5
3AA8
  8
HIDDEN
 10
11.94347228465721
 20
2.454124421516656
 30
0.0
 11
11.94347228465721
 21
2.4001244215166539
 31
0.0
  0
LINE
  5
3AA9
  8
HIDDEN
 10
11.340972284657219
 20
2.3601244215166548
 30
0.0
 11
11.340972284657219
 21
2.0921244215166519
 31
0.0
  0
LINE
  5
3AAA
  8
HIDDEN
 10
11.89347228465722
 20
2.008124421516654
 30
0.0
 11
11.593472284657221
 21
1.7081244215166611
 31
0.0
  0
LINE
  5
3AAB
  8
HIDDEN
 10
11.89347228465722
 20
2.454124421516656
 30
0.0
 11
11.89347228465722
 21
2.008124421516654
 31
0.0
  0
LINE
  5
3AAC
  8
HIDDEN
 10
11.89347228465722
 20
2.3391244215166558
 30
0.0
 11
11.78547228465723
 21
2.3391244215166558
 31
0.0
  0
ARC
  5
3AAD
  8
OBJECT
 10
3.7319722846572239
 20
2.108124421516655
 30
0.0
 40
0.05
 50
180.0
 51
270.0
  0
ARC
  5
3AAE
  8
OBJECT
 10
3.7319722846572239
 20
3.4461244215166542
 30
0.0
 40
0.05
 50
90.0
 51
180.0
  0
ARC
  5
3AAF
  8
OBJECT
 10
11.329972284657231
 20
2.108124421516655
 30
0.0
 40
0.05
 50
270.0
 51
0.0
  0
ARC
  5
3AB0
  8
OBJECT
 10
11.329972284657231
 20
3.4461244215166551
 30
0.0
 40
0.05
 50
0.0
 51
90.0
  0
LINE
  5
3AB1
  8
HIDDEN
 10
15.499164673499759
 20
8.2636809273243408
 30
0.0
 11
15.945164673499759
 21
8.2636809273243408
 31
0.0
  0
LINE
  5
3AB2
  8
HIDDEN
 10
15.464164673499759
 20
8.4691809273243361
 30
0.0
 11
15.68016467349976
 21
8.4691809273243361
 31
0.0
  0
LINE
  5
3AB3
  8
HIDDEN
 10
15.464164673499759
 20
8.5941809273243361
 30
0.0
 11
15.68016467349976
 21
8.5941809273243361
 31
0.0
  0
LINE
  5
3AB4
  8
HIDDEN
 10
15.464164673499759
 20
8.6991809273243383
 30
0.0
 11
16.245164673499751
 21
8.6991809273244165
 31
0.0
  0
LINE
  5
3AB5
  8
HIDDEN
 10
15.464164673499759
 20
8.364180927324341
 30
0.0
 11
15.989782930804431
 21
8.364180927324341
 31
0.0
  0
LINE
  5
3AB9
  8
HIDDEN
 10
15.945164673499759
 20
8.2636809273243408
 30
0.0
 11
16.245164673499751
 21
8.5636809273243415
 31
0.0
  0
LINE
  5
3ABB
  8
HIDDEN
 10
16.245164673499751
 20
16.21368092732434
 30
0.0
 11
16.245164673499751
 21
8.5636809273243415
 31
0.0
  0
ARC
  5
3ABD
  8
OBJECT
 10
16.507712721446222
 20
8.3830598017154259
 30
0.0
 40
0.309455422548424
 50
117.8465126832097
 51
175.62228220692771
  0
LINE
  5
3AC4
  8
HIDDEN
 10
14.615164673499759
 20
16.18318092732434
 30
0.0
 11
14.831164673499771
 21
16.18318092732434
 31
0.0
  0
LINE
  5
3AC5
  8
HIDDEN
 10
14.615164673499759
 20
16.30818092732434
 30
0.0
 11
14.831164673499771
 21
16.30818092732434
 31
0.0
  0
LINE
  5
3AC6
  8
HIDDEN
 10
15.499164673499759
 20
16.07818092732434
 30
0.0
 11
16.245164673499751
 21
16.078180927324262
 31
0.0
  0
LINE
  5
3AC8
  8
HIDDEN
 10
15.945164673499759
 20
16.513680927324341
 30
0.0
 11
16.245164673499751
 21
16.21368092732434
 31
0.0
  0
LINE
  5
3AC9
  8
HIDDEN
 10
15.499164673499759
 20
16.413180927324341
 30
0.0
 11
16.045664673499761
 21
16.413180927324341
 31
0.0
  0
LINE
  5
3ACA
  8
HIDDEN
 10
15.499164673499759
 20
16.475680927324341
 30
0.0
 11
15.983164673499759
 21
16.475680927324341
 31
0.0
  0
LINE
  5
3ACB
  8
HIDDEN
 10
15.499164673499759
 20
16.534680927324331
 30
0.0
 11
15.861164673499751
 21
16.534680927324331
 31
0.0
  0
LINE
  5
3ACC
  8
HIDDEN
 10
15.499164673499759
 20
16.513680927324341
 30
0.0
 11
15.945164673499759
 21
16.513680927324341
 31
0.0
  0
LINE
  5
3ACD
  8
HIDDEN
 10
15.861164673499751
 20
16.638680927324341
 30
0.0
 11
15.861164673499751
 21
16.534680927324331
 31
0.0
  0
LINE
  5
3ACE
  8
HIDDEN
 10
15.80116467349975
 20
16.534680927324331
 30
0.0
 11
15.80116467349975
 21
16.475680927324341
 31
0.0
  0
LINE
  5
3ACF
  8
HIDDEN
 10
15.801164673499761
 20
16.710406531219459
 30
0.0
 11
15.80116467349975
 21
16.638680927324341
 31
0.0
  0
LINE
  5
3AD0
  8
HIDDEN
 10
15.593164673499761
 20
16.638680927324341
 30
0.0
 11
15.861164673499751
 21
16.638680927324341
 31
0.0
  0
ARC
  5
3AD1
  8
OBJECT
 10
16.507712721446222
 20
16.394302052933249
 30
0.0
 40
0.309455422548424
 50
184.37771779307209
 51
242.15348731679029
  0
LINE
  5
3B05
  8
OBJECT
 10
3.1754722846572321
 20
8.5066809273243393
 30
0.0
 11
3.1754722846572321
 21
8.2706114393730701
 31
0.0
  0
LINE
  5
3B06
  8
OBJECT
 10
3.3218848367400322
 20
8.4170035317266603
 30
0.0
 11
3.168540804001537
 21
8.2636809273243408
 31
0.0
  0
LINE
  5
3B07
  8
OBJECT
 10
11.88647228465722
 20
8.2706114393730701
 30
0.0
 11
3.1754722846572321
 21
8.2706114393730701
 31
0.0
  0
LINE
  5
3B08
  8
OBJECT
 10
3.1754722846572281
 20
16.220680927324342
 30
0.0
 11
3.1754722846572321
 21
8.5566809273243365
 31
0.0
  0
LINE
  5
3B09
  8
OBJECT
 10
3.4684722846572269
 20
16.07998240590668
 30
0.0
 11
3.4684722846572309
 21
8.6973794487420015
 31
0.0
  0
LINE
  5
3B0A
  8
OBJECT
 10
11.45355741306709
 20
8.5636809273243397
 30
0.0
 11
3.608387156247356
 21
8.5636809273243415
 31
0.0
  0
LINE
  5
3B0B
  8
OBJECT
 10
11.593472284657221
 20
16.07998240590668
 30
0.0
 11
11.593472284657221
 21
8.6973794487420015
 31
0.0
  0
LINE
  5
3B0C
  8
OBJECT
 10
11.740059732574419
 20
8.4170035317266603
 30
0.0
 11
11.893403765312909
 21
8.2636809273243408
 31
0.0
  0
LINE
  5
3B0D
  8
OBJECT
 10
11.88647228465722
 20
8.5066809273243393
 30
0.0
 11
11.88647228465722
 21
8.2706114393730701
 31
0.0
  0
LINE
  5
3B0E
  8
OBJECT
 10
11.886472284657231
 20
16.220680927324342
 30
0.0
 11
11.88647228465722
 21
8.5566809273243365
 31
0.0
  0
LINE
  5
3B0F
  8
OBJECT
 10
11.45355741306709
 20
16.21368092732434
 30
0.0
 11
3.608387156247356
 21
16.213680927324329
 31
0.0
  0
LINE
  5
3B10
  8
OBJECT
 10
11.740059732574419
 20
16.360358322922011
 30
0.0
 11
11.893403765312909
 21
16.51368092732433
 31
0.0
  0
LINE
  5
3B11
  8
OBJECT
 10
11.886472284657231
 20
16.506750415275611
 30
0.0
 11
11.379972284657221
 21
16.506750415275611
 31
0.0
  0
LINE
  5
3B12
  8
OBJECT
 10
11.886472284657231
 20
16.506750415275611
 30
0.0
 11
11.886472284657231
 21
16.270680927324339
 31
0.0
  0
LINE
  5
3B13
  8
OBJECT
 10
3.3218848367400322
 20
16.360358322922011
 30
0.0
 11
3.168540804001537
 21
16.51368092732433
 31
0.0
  0
LINE
  5
3B14
  8
OBJECT
 10
3.1754722846572281
 20
16.506750415275611
 30
0.0
 11
3.1754722846572281
 21
16.270680927324339
 31
0.0
  0
LINE
  5
3B15
  8
OBJECT
 10
3.1754722846572281
 20
16.506750415275611
 30
0.0
 11
3.681972284657224
 21
16.506750415275611
 31
0.0
  0
TEXT
  5
3B48
  8
TEXT
 10
14.202448012260721
 20
0.3249213783861116
 30
0.0
 40
0.25
  1
FROM CLOSED END OF THE BOX
 41
0.75
  0
TEXT
  5
3B49
  8
TEXT
 10
13.83665667365695
 20
0.7401594736761119
 30
0.0
 40
0.25
  1
* THESE INSIDE DIMENSIONS ARE TAKEN
 41
0.75
  0
LINE
  5
49CC
  8
HIDDEN
 10
11.02297228465723
 20
19.424061107200629
 30
0.0
 11
4.038972284657234
 21
19.424061107200629
 31
0.0
  0
LINE
  5
49CD
  8
HIDDEN
 10
11.02297228465723
 20
24.24008167514873
 30
0.0
 11
4.038972284657234
 21
24.24008167514873
 31
0.0
  0
LINE
  5
49CE
  8
HIDDEN
 10
3.7119722846572318
 20
19.74707805018863
 30
0.0
 11
3.7119722846572318
 21
23.917064732160728
 31
0.0
  0
LINE
  5
49CF
  8
HIDDEN
 10
3.976972284657232
 20
19.74707805018863
 30
0.0
 11
3.7119722846572318
 21
19.74707805018863
 31
0.0
  0
LINE
  5
49D0
  8
OBJECT
 10
3.8304852176142599
 20
19.64795924028277
 30
0.0
 11
3.917459351700209
 21
19.560985106196831
 31
0.0
  0
LINE
  5
49D1
  8
OBJECT
 10
3.8304852176142599
 20
19.560985106196831
 30
0.0
 11
3.917459351700209
 21
19.64795924028277
 31
0.0
  0
ARC
  5
49D2
  8
HIDDEN
 10
3.976972284657232
 20
19.685078050188629
 30
0.0
 40
0.062
 50
0.0
 51
90.000000000000185
  0
LINE
  5
49D3
  8
HIDDEN
 10
4.038972284657234
 20
19.424061107200629
 30
0.0
 11
4.038972284657234
 21
19.685078050188629
 31
0.0
  0
CIRCLE
  5
49D4
  8
OBJECT
 10
3.873972284657234
 20
19.604472173239799
 30
0.0
 40
0.117
  0
LINE
  5
49D5
  8
HIDDEN
 10
3.976972284657232
 20
23.917064732160728
 30
0.0
 11
3.7119722846572318
 21
23.917064732160728
 31
0.0
  0
LINE
  5
49D6
  8
OBJECT
 10
3.8304852176142599
 20
24.01655653746262
 30
0.0
 11
3.917459351700209
 21
24.103530671548562
 31
0.0
  0
LINE
  5
49D7
  8
OBJECT
 10
3.8304852176142599
 20
24.103530671548562
 30
0.0
 11
3.917459351700209
 21
24.01655653746262
 31
0.0
  0
ARC
  5
49D8
  8
HIDDEN
 10
3.976972284657232
 20
23.97906473216073
 30
0.0
 40
0.062
 50
270.0
 51
0.0
  0
LINE
  5
49D9
  8
HIDDEN
 10
4.038972284657234
 20
23.97906473216073
 30
0.0
 11
4.038972284657234
 21
24.24008167514873
 31
0.0
  0
CIRCLE
  5
49DA
  8
OBJECT
 10
3.873972284657234
 20
24.060043604505591
 30
0.0
 40
0.117
  0
LINE
  5
49DB
  8
HIDDEN
 10
11.34997228465723
 20
19.74707805018863
 30
0.0
 11
11.34997228465723
 21
23.917064732160728
 31
0.0
  0
ARC
  5
49DE
  8
HIDDEN
 10
11.08497228465723
 20
19.685078050188629
 30
0.0
 40
0.062
 50
89.999999999999588
 51
180.0
  0
LINE
  5
49DF
  8
HIDDEN
 10
11.34997228465723
 20
19.74707805018863
 30
0.0
 11
11.08497228465723
 21
19.74707805018863
 31
0.0
  0
LINE
  5
49E0
  8
HIDDEN
 10
11.02297228465723
 20
19.424061107200629
 30
0.0
 11
11.02297228465723
 21
19.685078050188629
 31
0.0
  0
ARC
  5
49E4
  8
HIDDEN
 10
11.08497228465723
 20
23.979064732160719
 30
0.0
 40
0.062
 50
180.0
 51
270.0
  0
LINE
  5
49E5
  8
HIDDEN
 10
11.02297228465723
 20
23.979064732160719
 30
0.0
 11
11.02297228465723
 21
24.24008167514873
 31
0.0
  0
LINE
  5
49E6
  8
HIDDEN
 10
11.34997228465723
 20
23.917064732160728
 30
0.0
 11
11.08497228465723
 21
23.917064732160728
 31
0.0
  0
LINE
  5
4A27
  8
HIDDEN
 10
17.898324769490792
 20
19.313270234986749
 30
0.0
 11
17.010059563739571
 21
24.350872547362599
 31
0.0
  0
LINE
  5
4A28
  8
HIDDEN
 10
18.023698482270639
 20
19.22418778921994
 30
0.0
 11
17.11025429075772
 21
24.40458722578256
 31
0.0
  0
LINE
  5
4A2B
  8
HIDDEN
 10
17.98551556936696
 20
19.02610237420425
 30
0.0
 11
17.95279232405376
 21
19.211685120427919
 31
0.0
  0
LINE
  5
4A2E
  8
HIDDEN
 10
18.926013892103121
 20
19.375037222136399
 30
0.0
 11
17.997099657222901
 21
19.375037222136388
 31
0.0
  0
LINE
  5
4A2F
  8
HIDDEN
 10
18.023698482270639
 20
19.22418778921994
 30
0.0
 11
17.95279232405376
 21
19.211685120427919
 31
0.0
  0
LINE
  5
4A30
  8
HIDDEN
 10
18.961013892103121
 20
18.992037222136389
 30
0.0
 11
17.98551556936696
 21
19.02610237420425
 31
0.0
  0
LINE
  5
4A31
  8
HIDDEN
 10
18.926013892103121
 20
19.145037222136391
 30
0.0
 11
17.964544146730059
 21
19.145037222136391
 31
0.0
  0
LINE
  5
4A33
  8
HIDDEN
 10
18.926013892103121
 20
19.32253722213639
 30
0.0
 11
19.142013892103119
 21
19.32253722213639
 31
0.0
  0
LINE
  5
4A34
  8
HIDDEN
 10
18.926013892103121
 20
19.19753722213639
 30
0.0
 11
19.142013892103119
 21
19.19753722213639
 31
0.0
  0
ARC
  5
4A37
  8
OBJECT
 10
19.96956194004958
 20
19.111416096527481
 30
0.0
 40
0.309455422548424
 50
117.8465126832097
 51
175.62228220692771
  0
ARC
  5
4A38
  8
OBJECT
 10
19.763013892103121
 20
19.324723005338829
 30
0.0
 40
0.062
 50
315.00000000000011
 51
0.0
  0
LINE
  5
4A39
  8
HIDDEN
 10
19.70701389210312
 20
26.942037222136399
 30
0.0
 11
19.70701389210312
 21
19.2920372221364
 31
0.0
  0
LINE
  5
4A3A
  8
HIDDEN
 10
19.407013892103119
 20
18.992037222136389
 30
0.0
 11
19.70701389210312
 21
19.2920372221364
 31
0.0
  0
LINE
  5
4A3B
  8
HIDDEN
 10
18.961013892103121
 20
18.992037222136389
 30
0.0
 11
19.407013892103119
 21
18.992037222136389
 31
0.0
  0
LINE
  5
4A3C
  8
HIDDEN
 10
18.961013892103121
 20
27.2920372221364
 30
0.0
 11
18.961013892103121
 21
18.942037222136399
 31
0.0
  0
LINE
  5
4A3D
  8
HIDDEN
 10
18.961013892103121
 20
18.942037222136399
 30
0.0
 11
19.01501389210312
 21
18.942037222136399
 31
0.0
  0
LINE
  5
4A42
  8
HIDDEN
 10
17.03934813254083
 20
24.39208455699054
 30
0.0
 11
16.963183223286691
 21
24.824037222136401
 31
0.0
  0
LINE
  5
4A43
  8
HIDDEN
 10
17.11025429075772
 20
24.40458722578256
 30
0.0
 11
17.03934813254083
 21
24.39208455699054
 31
0.0
  0
LINE
  5
4A45
  8
HIDDEN
 10
16.94301389210311
 20
27.171567109302021
 30
0.0
 11
16.94301389210311
 21
26.665560736949431
 31
0.0
  0
LINE
  5
4A4B
  8
HIDDEN
 10
18.961013892103121
 20
27.2420372221364
 30
0.0
 11
16.94301389210311
 21
27.171567109302021
 31
0.0
  0
LINE
  5
4A4C
  8
HIDDEN
 10
18.077013892103128
 20
27.089037222136401
 30
0.0
 11
16.943013892103121
 21
27.089037222136401
 31
0.0
  0
LINE
  5
4A4D
  8
HIDDEN
 10
18.077013892103128
 20
26.85903722213639
 30
0.0
 11
16.943013892103121
 21
26.85903722213639
 31
0.0
  0
LINE
  5
4A4F
  8
HIDDEN
 10
18.961013892103121
 20
27.2040372221364
 30
0.0
 11
17.872836267352639
 21
27.204037222136389
 31
0.0
  0
LINE
  5
4A52
  8
HIDDEN
 10
18.077013892103128
 20
26.911537222136399
 30
0.0
 11
18.293013892103129
 21
26.911537222136399
 31
0.0
  0
LINE
  5
4A53
  8
HIDDEN
 10
18.961013892103121
 20
27.26303722213639
 30
0.0
 11
17.953013892103129
 21
27.26303722213639
 31
0.0
  0
LINE
  5
4A54
  8
HIDDEN
 10
18.013013892103132
 20
27.26303722213639
 30
0.0
 11
18.013013892103121
 21
27.2040372221364
 31
0.0
  0
LINE
  5
4A55
  8
HIDDEN
 10
17.953013892103119
 20
27.3670372221364
 30
0.0
 11
17.953013892103129
 21
27.26303722213639
 31
0.0
  0
LINE
  5
4A56
  8
HIDDEN
 10
18.077013892103128
 20
27.036537222136399
 30
0.0
 11
18.293013892103129
 21
27.036537222136399
 31
0.0
  0
LINE
  5
4A58
  8
HIDDEN
 10
19.407013892103119
 20
27.2420372221364
 30
0.0
 11
19.70701389210312
 21
26.942037222136399
 31
0.0
  0
LINE
  5
4A59
  8
HIDDEN
 10
18.961013892103121
 20
27.26303722213639
 30
0.0
 11
19.323013892103109
 21
27.26303722213639
 31
0.0
  0
LINE
  5
4A5A
  8
HIDDEN
 10
18.961013892103121
 20
27.2040372221364
 30
0.0
 11
19.44501389210312
 21
27.2040372221364
 31
0.0
  0
LINE
  5
4A5B
  8
HIDDEN
 10
18.961013892103121
 20
27.2420372221364
 30
0.0
 11
19.407013892103119
 21
27.2420372221364
 31
0.0
  0
LINE
  5
4A5C
  8
HIDDEN
 10
19.323013892103109
 20
27.3670372221364
 30
0.0
 11
19.323013892103109
 21
27.26303722213639
 31
0.0
  0
LINE
  5
4A5D
  8
HIDDEN
 10
19.26301389210311
 20
27.26303722213639
 30
0.0
 11
19.26301389210311
 21
27.2040372221364
 31
0.0
  0
LINE
  5
4A5E
  8
HIDDEN
 10
19.263013892103121
 20
27.438762826031521
 30
0.0
 11
19.26301389210311
 21
27.3670372221364
 31
0.0
  0
LINE
  5
4A5F
  8
HIDDEN
 10
19.055013892103119
 20
27.3670372221364
 30
0.0
 11
17.953013892103119
 21
27.3670372221364
 31
0.0
  0
LINE
  5
4A60
  8
HIDDEN
 10
18.961013892103121
 20
27.2920372221364
 30
0.0
 11
19.01501389210312
 21
27.292037222136379
 31
0.0
  0
LINE
  5
4A61
  8
HIDDEN
 10
19.055013892103119
 20
27.3670372221364
 30
0.0
 11
19.323013892103109
 21
27.3670372221364
 31
0.0
  0
ARC
  5
4A62
  8
OBJECT
 10
19.96956194004958
 20
27.122658347745311
 30
0.0
 40
0.309455422548424
 50
184.37771779307209
 51
242.15348731679029
  0
LINE
  5
4A63
  8
HIDDEN
 10
18.013013892103121
 20
27.404120316173628
 30
0.0
 11
18.013013892103121
 21
27.3670372221364
 31
0.0
  0
LINE
  5
4AB9
  8
HIDDEN
 10
11.75438285977158
 20
6.4371244215166552
 30
0.0
 11
3.3075617095428629
 21
6.4371244215166543
 31
0.0
  0
LINE
  5
4ABA
  8
HIDDEN
 10
11.81888152102284
 20
4.5901244215166548
 30
0.0
 11
11.75438285977158
 21
6.4371244215166552
 31
0.0
  0
LINE
  5
4ABB
  8
HIDDEN
 10
3.2430630482916021
 20
4.5901244215166548
 30
0.0
 11
3.3075617095428629
 21
6.4371244215166543
 31
0.0
  0
LINE
  5
4ABD
  8
HIDDEN
 10
11.316995799470289
 20
4.4721244215166553
 30
0.0
 11
11.316995799470289
 21
4.5901244215166548
 31
0.0
  0
LINE
  5
4ABF
  8
HIDDEN
 10
3.7449487698441528
 20
4.4721244215166553
 30
0.0
 11
3.744948769844151
 21
4.5901244215166548
 31
0.0
  0
LINE
  5
4AC0
  8
HIDDEN
 10
3.7449487698441528
 20
4.4721244215166553
 30
0.0
 11
3.2389423974915799
 21
4.4721244215166553
 31
0.0
  0
LINE
  5
4AC2
  8
HIDDEN
 10
11.73297228465723
 20
3.434124421516648
 30
0.0
 11
11.859249930555301
 21
3.4341244215166489
 31
0.0
  0
LINE
  5
4AC3
  8
HIDDEN
 10
3.3289722846572221
 20
3.434124421516648
 30
0.0
 11
3.2026946387591462
 21
3.4341244215166489
 31
0.0
  0
LINE
  5
4AC9
  8
HIDDEN
 10
16.829132032714011
 20
27.172632619361188
 30
0.0
 11
14.978013892103119
 21
27.10799014947089
 31
0.0
  0
LINE
  5
4ACA
  8
HIDDEN
 10
14.978013892103119
 20
27.10799014947089
 30
0.0
 11
14.978013892103119
 21
25.357625484658112
 31
0.0
  0
LINE
  5
4AD6
  8
HIDDEN
 10
16.825013892103119
 20
26.665560736949441
 30
0.0
 11
16.94301389210311
 21
26.665560736949441
 31
0.0
  0
LINE
  5
4AD8
  8
HIDDEN
 10
16.825013892103119
 20
24.86272332623782
 30
0.0
 11
16.65947159668853
 21
24.907080250607351
 31
0.0
  0
LINE
  5
4ADB
  8
HIDDEN
 10
16.52364503430093
 20
24.821312279021431
 30
0.0
 11
16.554185681623029
 21
24.935291526523532
 31
0.0
  0
LINE
  5
4ADC
  8
HIDDEN
 10
15.19066739402202
 20
25.178482561262911
 30
0.0
 11
15.221208041344109
 21
25.292461808765012
 31
0.0
  0
LINE
  5
4ADD
  8
HIDDEN
 10
16.678883025071219
 20
24.97952468757904
 30
0.0
 11
15.29181353852012
 21
25.351188836346271
 31
0.0
  0
LINE
  5
4ADF
  8
HIDDEN
 10
15.317800623973019
 20
25.266579904254769
 30
0.0
 11
15.33721205235571
 21
25.339024341226441
 31
0.0
  0
LINE
  5
4AE0
  8
HIDDEN
 10
16.457593098994121
 20
24.961173431033789
 30
0.0
 11
16.47700452737681
 21
25.033617868005472
 31
0.0
  0
LINE
  5
4AE1
  8
HIDDEN
 10
16.65947159668854
 20
24.907080250607361
 30
0.0
 11
16.678883025071219
 21
24.97952468757904
 31
0.0
  0
LINE
  5
4AE4
  8
HIDDEN
 10
15.29181353852012
 20
25.351188836346271
 30
0.0
 11
14.978013892103119
 21
25.357625484658112
 31
0.0
  0
LINE
  5
4AE5
  8
HIDDEN
 10
16.554185681623029
 20
24.935291526523532
 30
0.0
 11
15.221208041344109
 21
25.292461808765019
 31
0.0
  0
LINE
  5
4B0D
  8
DIM
 10
16.35230746252363
 20
26.994481386019402
 30
0.0
 11
15.819074812402709
 21
27.137360643997201
 31
0.0
  0
LINE
  5
4B24
  8
DIM
 10
19.49872122904199
 20
20.927712814032681
 30
0.0
 11
19.70701389210312
 21
19.74642642085438
 31
0.0
  0
TEXT
  5
4E9F
  8
DIM
 10
17.234148782826448
 20
26.014638041684261
 30
0.0
 40
0.25
  1
MAX.
 41
0.75
  0
TEXT
  5
4EAA
  8
DIM
 10
16.204143785207972
 20
25.60148057475072
 30
0.0
 40
0.25
  1
MAX.
 41
0.75
  0
TEXT
  5
4EAB
  8
DIM
 10
18.08371483157017
 20
24.534782993986688
 30
0.0
 40
0.25
  1
MAX.
 41
0.75
  0
TEXT
  5
4EAC
  8
DIM
 10
18.26884767812038
 20
20.351458787874471
 30
0.0
 40
0.25
  1
MIN.
 41
0.75
  0
TEXT
  5
4EC5
  8
DIM
 10
16.228827014282899
 20
21.808996560674771
 30
0.0
 40
0.25
  1
MIN.
 41
0.75
  0
LINE
  5
558A
  8
HIDDEN
 10
17.17551395845652
 20
24.034481258808079
 30
0.0
 11
17.069154721131191
 21
24.01572725562005
 31
0.0
  0
LINE
  5
558B
  8
HIDDEN
 10
17.192910823327161
 20
23.93581873534875
 30
0.0
 11
17.08655158600185
 21
23.917064732160728
 31
0.0
  0
LINE
  5
558C
  8
HIDDEN
 10
17.15988562246649
 20
24.123113956579179
 30
0.0
 11
17.053526385141168
 21
24.10435995339115
 31
0.0
  0
LINE
  5
558D
  8
HIDDEN
 10
17.135954221052419
 20
24.258835678336759
 30
0.0
 11
17.029594983727101
 21
24.24008167514874
 31
0.0
  0
LINE
  5
558E
  8
HIDDEN
 10
17.010059563739581
 20
24.350872547362609
 30
0.0
 11
16.893852248884141
 21
24.330382062397909
 31
0.0
  0
LINE
  5
558F
  8
HIDDEN
 10
17.94564362640936
 20
19.66685887419894
 30
0.0
 11
17.839284389084039
 21
19.648104871010911
 31
0.0
  0
LINE
  5
5590
  8
HIDDEN
 10
17.96127196239938
 20
19.57822617642784
 30
0.0
 11
17.854912725074058
 21
19.559472173239811
 31
0.0
  0
LINE
  5
5591
  8
HIDDEN
 10
17.928191984553841
 20
19.765832053376659
 30
0.0
 11
17.82183274722852
 21
19.747078050188641
 31
0.0
  0
LINE
  5
5592
  8
HIDDEN
 10
17.898324769490792
 20
19.313270234986749
 30
0.0
 11
17.782117454635362
 21
19.292779750022049
 31
0.0
  0
LINE
  5
5593
  8
HIDDEN
 10
17.985148586828579
 20
19.442815110388661
 30
0.0
 11
17.878789349503268
 21
19.424061107200639
 31
0.0
  0
LINE
  5
5594
  8
HIDDEN
 10
15.788299413232689
 20
25.218155847163551
 30
0.0
 11
15.768887984850011
 21
25.145711410191868
 31
0.0
  0
LINE
  5
5595
  8
HIDDEN
 10
16.025917166499809
 20
25.154486362068329
 30
0.0
 11
16.00650573811712
 21
25.082041925096661
 31
0.0
  0
LINE
  5
5596
  8
HIDDEN
 10
15.863641627683251
 20
25.197967961645549
 30
0.0
 11
15.84423019930056
 21
25.125523524673881
 31
0.0
  0
LINE
  5
5597
  8
HIDDEN
 10
15.95057495204926
 20
25.174674247586331
 30
0.0
 11
15.931163523666569
 21
25.102229810614649
 31
0.0
  0
LINE
  5
55CC
  8
OBJECT
 10
11.23145935170019
 20
24.103530671548562
 30
0.0
 11
11.144485217614241
 21
24.01655653746262
 31
0.0
  0
LINE
  5
55CD
  8
OBJECT
 10
11.23145935170019
 20
24.01655653746262
 30
0.0
 11
11.144485217614241
 21
24.103530671548562
 31
0.0
  0
CIRCLE
  5
55CE
  8
OBJECT
 10
11.187972284657221
 20
24.060043604505591
 30
0.0
 40
0.117
  0
LINE
  5
55CF
  8
OBJECT
 10
11.23145935170019
 20
19.560985106196831
 30
0.0
 11
11.144485217614241
 21
19.64795924028277
 31
0.0
  0
LINE
  5
55D0
  8
OBJECT
 10
11.23145935170019
 20
19.64795924028277
 30
0.0
 11
11.144485217614241
 21
19.560985106196831
 31
0.0
  0
CIRCLE
  5
55D1
  8
OBJECT
 10
11.187972284657221
 20
19.604472173239799
 30
0.0
 40
0.117
  0
LINE
  5
55D7
  8
DIM
 10
3.7119722846572318
 20
19.62207805018863
 30
0.0
 11
3.7119722846572318
 21
18.311097381664059
 31
0.0
  0
LINE
  5
55D8
  8
DIM
 10
11.34997228465723
 20
19.62207805018863
 30
0.0
 11
11.34997228465723
 21
18.311097381664059
 31
0.0
  0
LINE
  5
55D9
  8
DIM
 10
4.0719722846572317
 20
18.497097381664059
 30
0.0
 11
6.5697222846572307
 21
18.497097381664059
 31
0.0
  0
LINE
  5
55DA
  8
DIM
 10
10.989972284657229
 20
18.497097381664059
 30
0.0
 11
8.4922222846572311
 21
18.497097381664059
 31
0.0
  0
SOLID
  5
55DB
  8
DIM
 10
4.0719722846572317
 20
18.557097381664061
 30
0.0
 11
4.0719722846572317
 21
18.43709738166406
 31
0.0
 12
3.7119722846572318
 22
18.497097381664059
 32
0.0
 13
3.7119722846572318
 23
18.497097381664059
 33
0.0
  0
SOLID
  5
55DC
  8
DIM
 10
10.989972284657229
 20
18.557097381664061
 30
0.0
 11
10.989972284657229
 21
18.43709738166406
 31
0.0
 12
11.34997228465723
 22
18.497097381664059
 32
0.0
 13
11.34997228465723
 23
18.497097381664059
 33
0.0
  0
TEXT
  5
55DD
  8
OBJECT
 10
6.7497222846572313
 20
18.372097381664059
 30
0.0
 40
0.25
  1
7.638 TYP.
 41
0.75
  0
LINE
  5
55DE
  8
DIM
 10
3.4684722846572309
 20
13.94193069488559
 30
0.0
 11
3.4684722846572309
 21
13.78894727564845
 31
0.0
  0
LINE
  5
55DF
  8
DIM
 10
11.593472284657221
 20
13.941930694885579
 30
0.0
 11
11.593472284657221
 21
13.78894727564845
 31
0.0
  0
LINE
  5
55E0
  8
DIM
 10
3.8284722846572312
 20
13.97494727564845
 30
0.0
 11
7.9997907099108927
 21
13.97494727564845
 31
0.0
  0
LINE
  5
55E1
  8
DIM
 10
11.233472284657219
 20
13.97494727564845
 30
0.0
 11
9.234790709910893
 21
13.97494727564845
 31
0.0
  0
SOLID
  5
55E2
  8
DIM
 10
3.8284722846572312
 20
14.034947275648451
 30
0.0
 11
3.8284722846572312
 21
13.91494727564845
 31
0.0
 12
3.4684722846572309
 22
13.97494727564845
 32
0.0
 13
3.4684722846572309
 23
13.97494727564845
 33
0.0
  0
SOLID
  5
55E3
  8
DIM
 10
11.233472284657219
 20
14.034947275648451
 30
0.0
 11
11.233472284657219
 21
13.91494727564845
 31
0.0
 12
11.593472284657221
 22
13.97494727564845
 32
0.0
 13
11.593472284657221
 23
13.97494727564845
 33
0.0
  0
TEXT
  5
55E4
  8
OBJECT
 10
8.1797907099108933
 20
13.84994727564845
 30
0.0
 40
0.25
  1
*8.125
 41
0.75
  0
TEXT
  5
55E5
  8
OBJECT
 10
5.8967911765741761
 20
0.6321801511408652
 30
0.0
 40
0.25
  1
REMOVABLE REAR PANEL
 41
0.75
  0
TEXT
  5
55E6
  8
OBJECT
 10
5.8967911765741761
 20
0.2155134844741985
 30
0.0
 40
0.25
  1
0.090 THICK (TEXTURED ON ONE SIDE)
 41
0.75
  0
LINE
  5
55E7
  8
DIM
 10
7.5309722846572562
 20
16.763680927324351
 30
0.0
 11
7.5309722846572562
 21
17.303044889282329
 31
0.0
  0
LINE
  5
55E8
  8
DIM
 10
11.42847228465722
 20
12.513680927324341
 30
0.0
 11
11.42847228465722
 21
17.303044889282329
 31
0.0
  0
LINE
  5
55E9
  8
DIM
 10
7.8909722846572556
 20
17.117044889282329
 30
0.0
 11
8.9247222846572392
 21
17.117044889282329
 31
0.0
  0
LINE
  5
55EA
  8
DIM
 10
11.06847228465722
 20
17.117044889282329
 30
0.0
 11
10.03472228465724
 21
17.117044889282329
 31
0.0
  0
SOLID
  5
55EB
  8
DIM
 10
7.8909722846572556
 20
17.177044889282332
 30
0.0
 11
7.8909722846572556
 21
17.057044889282331
 31
0.0
 12
7.5309722846572562
 22
17.117044889282329
 32
0.0
 13
7.5309722846572562
 23
17.117044889282329
 33
0.0
  0
SOLID
  5
55EC
  8
DIM
 10
11.06847228465722
 20
17.177044889282332
 30
0.0
 11
11.06847228465722
 21
17.057044889282331
 31
0.0
 12
11.42847228465722
 22
17.117044889282329
 32
0.0
 13
11.42847228465722
 23
17.117044889282329
 33
0.0
  0
TEXT
  5
55ED
  8
OBJECT
 10
9.1047222846572406
 20
16.992044889282329
 30
0.0
 40
0.25
  1
3.898
 41
0.75
  0
LINE
  5
55EE
  8
DIM
 10
7.5309722846572562
 20
8.0136809273243266
 30
0.0
 11
7.5309722846572562
 21
7.4524313493760754
 31
0.0
  0
LINE
  5
55EF
  8
DIM
 10
11.07397228465722
 20
8.6026809273243412
 30
0.0
 11
11.07397228465722
 21
7.4524313493760754
 31
0.0
  0
LINE
  5
55F0
  8
DIM
 10
7.8909722846572556
 20
7.6384313493760754
 30
0.0
 11
8.7474722846572401
 21
7.6384313493760754
 31
0.0
  0
LINE
  5
55F1
  8
DIM
 10
10.713972284657221
 20
7.6384313493760754
 30
0.0
 11
9.8574722846572413
 21
7.6384313493760754
 31
0.0
  0
SOLID
  5
55F2
  8
DIM
 10
7.8909722846572556
 20
7.6984313493760741
 30
0.0
 11
7.8909722846572556
 21
7.5784313493760749
 31
0.0
 12
7.5309722846572562
 22
7.6384313493760754
 32
0.0
 13
7.5309722846572562
 23
7.6384313493760754
 33
0.0
  0
SOLID
  5
55F3
  8
DIM
 10
10.713972284657221
 20
7.6984313493760741
 30
0.0
 11
10.713972284657221
 21
7.5784313493760749
 31
0.0
 12
11.07397228465722
 22
7.6384313493760754
 32
0.0
 13
11.07397228465722
 23
7.6384313493760754
 33
0.0
  0
TEXT
  5
55F4
  8
OBJECT
 10
8.9274722846572416
 20
7.5134313493760754
 30
0.0
 40
0.25
  1
3.543
 41
0.75
  0
LINE
  5
55F5
  8
DIM
 10
12.14347228465722
 20
12.388680927324341
 30
0.0
 11
12.8250616723278
 21
12.388680927324341
 31
0.0
  0
LINE
  5
55F6
  8
DIM
 10
7.6559722846572242
 20
11.01568092732434
 30
0.0
 11
12.82506167232779
 21
11.015680927324331
 31
0.0
  0
LINE
  5
55F7
  8
DIM
 10
12.6390616723278
 20
12.74868092732433
 30
0.0
 11
12.6390616723278
 21
13.10868092732434
 31
0.0
  0
LINE
  5
55F8
  8
DIM
 10
12.63906167232779
 20
10.65568092732433
 30
0.0
 11
12.63906167232779
 21
10.29568092732433
 31
0.0
  0
SOLID
  5
55F9
  8
DIM
 10
12.579061672327789
 20
12.74868092732433
 30
0.0
 11
12.699061672327799
 21
12.74868092732433
 31
0.0
 12
12.6390616723278
 22
12.388680927324341
 32
0.0
 13
12.6390616723278
 23
12.388680927324341
 33
0.0
  0
SOLID
  5
55FA
  8
DIM
 10
12.579061672327789
 20
10.65568092732433
 30
0.0
 11
12.69906167232779
 21
10.65568092732433
 31
0.0
 12
12.63906167232779
 22
11.015680927324331
 32
0.0
 13
12.63906167232779
 23
11.015680927324331
 33
0.0
  0
TEXT
  5
55FB
  8
OBJECT
 10
12.29531167232779
 20
11.57718092732434
 30
0.0
 40
0.25
  1
1.373
 41
0.75
  0
LINE
  5
55FC
  8
DIM
 10
3.0434722846572271
 20
18.930037222136399
 30
0.0
 11
3.0434722846572271
 21
17.467679241070151
 31
0.0
  0
LINE
  5
55FD
  8
DIM
 10
12.01847228465722
 20
18.930037222136399
 30
0.0
 11
12.01847228465722
 21
17.467679241070151
 31
0.0
  0
LINE
  5
55FE
  8
DIM
 10
3.4034722846572261
 20
17.653679241070151
 30
0.0
 11
6.9759722846572281
 21
17.653679241070151
 31
0.0
  0
LINE
  5
55FF
  8
DIM
 10
11.65847228465722
 20
17.653679241070151
 30
0.0
 11
8.0859722846572275
 21
17.653679241070151
 31
0.0
  0
SOLID
  5
5600
  8
DIM
 10
3.4034722846572261
 20
17.71367924107015
 30
0.0
 11
3.4034722846572261
 21
17.593679241070149
 31
0.0
 12
3.0434722846572271
 22
17.653679241070151
 32
0.0
 13
3.0434722846572271
 23
17.653679241070151
 33
0.0
  0
SOLID
  5
5601
  8
DIM
 10
11.65847228465722
 20
17.71367924107015
 30
0.0
 11
11.65847228465722
 21
17.593679241070149
 31
0.0
 12
12.01847228465722
 22
17.653679241070151
 32
0.0
 13
12.01847228465722
 23
17.653679241070151
 33
0.0
  0
TEXT
  5
5602
  8
OBJECT
 10
7.1559722846572269
 20
17.528679241070151
 30
0.0
 40
0.25
  1
8.975
 41
0.75
  0
LINE
  5
5603
  8
DIM
 10
3.5989722846572292
 20
19.17073417328109
 30
0.0
 11
3.5989722846572292
 21
17.884644775070999
 31
0.0
  0
LINE
  5
5604
  8
DIM
 10
11.46297228465723
 20
19.17073417328109
 30
0.0
 11
11.46297228465723
 21
17.884644775070999
 31
0.0
  0
LINE
  5
5605
  8
DIM
 10
3.9589722846572282
 20
18.070644775070999
 30
0.0
 11
6.569722284657229
 21
18.070644775070999
 31
0.0
  0
LINE
  5
5606
  8
DIM
 10
11.102972284657231
 20
18.070644775070999
 30
0.0
 11
8.4922222846572293
 21
18.070644775070999
 31
0.0
  0
SOLID
  5
5607
  8
DIM
 10
3.9589722846572282
 20
18.130644775071008
 30
0.0
 11
3.9589722846572282
 21
18.010644775071011
 31
0.0
 12
3.5989722846572292
 22
18.070644775070999
 32
0.0
 13
3.5989722846572292
 23
18.070644775070999
 33
0.0
  0
SOLID
  5
5608
  8
DIM
 10
11.102972284657231
 20
18.130644775071008
 30
0.0
 11
11.102972284657231
 21
18.010644775071011
 31
0.0
 12
11.46297228465723
 22
18.070644775070999
 32
0.0
 13
11.46297228465723
 23
18.070644775070999
 33
0.0
  0
TEXT
  5
5609
  8
OBJECT
 10
6.7497222846572287
 20
17.945644775070999
 30
0.0
 40
0.25
  1
7.864 TYP.
 41
0.75
  0
LINE
  5
560A
  8
DIM
 10
3.7759722846572248
 20
2.0271244215166528
 30
0.0
 11
3.7759722846572248
 21
0.9640637247367038
 31
0.0
  0
LINE
  5
560B
  8
DIM
 10
11.28597228465723
 20
2.0271244215166528
 30
0.0
 11
11.28597228465723
 21
0.9640637247367038
 31
0.0
  0
LINE
  5
560C
  8
DIM
 10
4.1359722846572247
 20
1.1500637247367029
 30
0.0
 11
7.0228472846572281
 21
1.1500637247367029
 31
0.0
  0
LINE
  5
560D
  8
DIM
 10
10.925972284657229
 20
1.1500637247367029
 30
0.0
 11
8.0390972846572275
 21
1.1500637247367029
 31
0.0
  0
SOLID
  5
560E
  8
DIM
 10
4.1359722846572247
 20
1.210063724736703
 30
0.0
 11
4.1359722846572247
 21
1.0900637247367031
 31
0.0
 12
3.7759722846572248
 22
1.1500637247367029
 32
0.0
 13
3.7759722846572248
 23
1.1500637247367029
 33
0.0
  0
SOLID
  5
560F
  8
DIM
 10
10.925972284657229
 20
1.210063724736703
 30
0.0
 11
10.925972284657229
 21
1.0900637247367031
 31
0.0
 12
11.28597228465723
 22
1.1500637247367029
 32
0.0
 13
11.28597228465723
 23
1.1500637247367029
 33
0.0
  0
TEXT
  5
5610
  8
OBJECT
 10
7.2028472846572269
 20
1.0250637247367029
 30
0.0
 40
0.25
  1
7.510
 41
0.75
  0
TEXT
  5
5611
  8
TEXT
 10
0.4156666666666726
 20
30.440158391280161
 30
0.0
 40
0.25
  1
NAME
  7
TXT
 72
     1
 11
0.8740000000000058
 21
30.440158391280161
 31
0.0
  0
TEXT
  5
5612
  8
TEXT
 10
0.4156666666666726
 20
30.856825057946821
 30
0.0
 40
0.25
  1
PART
  7
TXT
 72
     1
 11
0.8740000000000058
 21
30.856825057946821
 31
0.0
  0
TEXT
  5
5613
  8
TEXT
 10
11.22399999999999
 20
30.440158391280161
 30
0.0
 40
0.25
  1
No.
  7
TXT
 72
     1
 11
11.47399999999999
 21
30.440158391280161
 31
0.0
  0
TEXT
  5
5614
  8
TEXT
 10
11.015666666666659
 20
30.856825057946821
 30
0.0
 40
0.25
  1
PART
  7
TXT
 72
     1
 11
11.47399999999999
 21
30.856825057946821
 31
0.0
  0
LINE
  5
5615
  8
TITLE
 10
12.224
 20
31.196000000000002
 30
0.0
 11
12.224
 21
30.359999999999999
 31
0.0
  0
LINE
  5
5616
  8
TITLE
 10
10.724
 20
31.196000000000002
 30
0.0
 11
10.724
 21
30.359999999999999
 31
0.0
  0
LINE
  5
5617
  8
TITLE
 10
10.6
 20
31.196000000000002
 30
0.0
 11
10.6
 21
30.359999999999999
 31
0.0
  0
LINE
  5
5618
  8
TITLE
 10
1.624000000000005
 20
30.359999999999999
 30
0.0
 11
1.6240000000000021
 21
31.196000000000002
 31
0.0
  0
LINE
  5
5619
  8
TITLE
 10
0.1240000000000023
 20
30.359999999999999
 30
0.0
 11
21.076000000000001
 21
30.359999999999999
 31
0.0
  0
LINE
  5
561A
  8
TITLE
 10
21.076000000000001
 20
0.1239999999999988
 30
0.0
 11
0.1239999999999952
 21
0.1240000000000023
 31
0.0
  0
LINE
  5
561B
  8
TITLE
 10
21.076000000000001
 20
31.196000000000002
 30
0.0
 11
21.076000000000001
 21
0.1239999999999988
 31
0.0
  0
LINE
  5
561C
  8
TITLE
 10
0.1240000000000023
 20
31.196000000000002
 30
0.0
 11
21.076000000000001
 21
31.196000000000002
 31
0.0
  0
LINE
  5
561D
  8
TITLE
 10
0.1239999999999952
 20
0.1240000000000023
 30
0.0
 11
0.1240000000000023
 21
31.196000000000002
 31
0.0
  0
LINE
  5
561E
  8
TITLE
 10
0.0
 20
0.0
 30
0.0
 11
0.0
 21
31.32
 31
0.0
  0
LINE
  5
561F
  8
TITLE
 10
21.199999999999999
 20
-0.0000000000000036
 30
0.0
 11
0.0
 21
0.0
 31
0.0
  0
LINE
  5
5620
  8
TITLE
 10
21.199999999999999
 20
31.31999999999999
 30
0.0
 11
21.199999999999999
 21
-0.0000000000000036
 31
0.0
  0
LINE
  5
5621
  8
TITLE
 10
0.0
 20
31.32
 30
0.0
 11
21.199999999999999
 21
31.31999999999999
 31
0.0
  0
LINE
  5
5622
  8
DIM
 10
9.6732574976771133
 20
16.21368092732434
 30
0.0
 11
9.5017845137127175
 21
16.21368092732434
 31
0.0
  0
LINE
  5
5623
  8
DIM
 10
9.6732574976771133
 20
8.5636809273243397
 30
0.0
 11
9.5017845137127157
 21
8.5636809273243397
 31
0.0
  0
LINE
  5
5624
  8
DIM
 10
9.6877845137127174
 20
15.853680927324341
 30
0.0
 11
9.6877845137127174
 21
13.26397786405734
 31
0.0
  0
LINE
  5
5625
  8
DIM
 10
9.6877845137127157
 20
8.9236809273243392
 30
0.0
 11
9.6877845137127174
 21
12.653977864057341
 31
0.0
  0
SOLID
  5
5626
  8
DIM
 10
9.6277845137127152
 20
15.853680927324341
 30
0.0
 11
9.7477845137127161
 21
15.853680927324341
 31
0.0
 12
9.6877845137127174
 22
16.21368092732434
 32
0.0
 13
9.6877845137127174
 23
16.21368092732434
 33
0.0
  0
SOLID
  5
5627
  8
DIM
 10
9.6277845137127152
 20
8.9236809273243392
 30
0.0
 11
9.7477845137127161
 21
8.9236809273243392
 31
0.0
 12
9.6877845137127157
 22
8.5636809273243397
 32
0.0
 13
9.6877845137127157
 23
8.5636809273243397
 33
0.0
  0
TEXT
  5
5628
  8
OBJECT
 10
9.2346595137127139
 20
12.83397786405734
 30
0.0
 40
0.25
  1
*7.650
 41
0.75
  0
LINE
  5
5629
  8
DIM
 10
7.5309722846572562
 20
16.763680927324351
 30
0.0
 11
7.5309722846572562
 21
17.303044889282329
 31
0.0
  0
LINE
  5
562A
  8
DIM
 10
3.633472284657226
 20
12.513680927324341
 30
0.0
 11
3.6334722846572269
 21
17.303044889282329
 31
0.0
  0
LINE
  5
562B
  8
DIM
 10
7.170972284657255
 20
17.117044889282329
 30
0.0
 11
6.1372222846572413
 21
17.117044889282329
 31
0.0
  0
LINE
  5
562C
  8
DIM
 10
3.9934722846572268
 20
17.117044889282329
 30
0.0
 11
5.027222284657241
 21
17.117044889282329
 31
0.0
  0
SOLID
  5
562D
  8
DIM
 10
7.170972284657255
 20
17.177044889282332
 30
0.0
 11
7.170972284657255
 21
17.057044889282331
 31
0.0
 12
7.5309722846572562
 22
17.117044889282329
 32
0.0
 13
7.5309722846572562
 23
17.117044889282329
 33
0.0
  0
SOLID
  5
562E
  8
DIM
 10
3.9934722846572268
 20
17.177044889282332
 30
0.0
 11
3.9934722846572268
 21
17.057044889282331
 31
0.0
 12
3.6334722846572269
 22
17.117044889282329
 32
0.0
 13
3.6334722846572269
 23
17.117044889282329
 33
0.0
  0
TEXT
  5
562F
  8
OBJECT
 10
5.2072222846572407
 20
16.992044889282329
 30
0.0
 40
0.25
  1
3.898
 41
0.75
  0
LINE
  5
5630
  8
DIM
 10
3.6509722846572248
 20
2.1521244215166528
 30
0.0
 11
2.2347014367499218
 21
2.1521244215166528
 31
0.0
  0
LINE
  5
5631
  8
DIM
 10
3.6509722846572248
 20
3.4021244215166528
 30
0.0
 11
2.2347014367499218
 21
3.4021244215166528
 31
0.0
  0
LINE
  5
5632
  8
DIM
 10
2.4207014367499222
 20
1.792124421516653
 30
0.0
 11
2.4207014367499222
 21
1.4321244215166531
 31
0.0
  0
LINE
  5
5633
  8
DIM
 10
2.4207014367499222
 20
3.7621244215166532
 30
0.0
 11
2.4207014367499222
 21
4.122124421516653
 31
0.0
  0
SOLID
  5
5634
  8
DIM
 10
2.3607014367499222
 20
1.792124421516653
 30
0.0
 11
2.4807014367499218
 21
1.792124421516653
 31
0.0
 12
2.4207014367499222
 22
2.1521244215166528
 32
0.0
 13
2.4207014367499222
 23
2.1521244215166528
 33
0.0
  0
SOLID
  5
5635
  8
DIM
 10
2.3607014367499222
 20
3.7621244215166532
 30
0.0
 11
2.4807014367499218
 21
3.7621244215166532
 31
0.0
 12
2.4207014367499222
 22
3.4021244215166528
 32
0.0
 13
2.4207014367499222
 23
3.4021244215166528
 33
0.0
  0
TEXT
  5
5636
  8
OBJECT
 10
2.0925764367499209
 20
2.6521244215166542
 30
0.0
 40
0.25
  1
1.250
 41
0.75
  0
LINE
  5
5637
  8
HIDDEN
 10
3.3989722846572259
 20
3.3381244215166488
 30
0.0
 11
3.3989722846572259
 21
4.3381244215166488
 31
0.0
  0
LINE
  5
5638
  8
HIDDEN
 10
3.3989722846572259
 20
4.3381244215166488
 30
0.0
 11
3.4889722846572222
 21
4.3381244215166488
 31
0.0
  0
LINE
  5
5639
  8
HIDDEN
 10
3.4889722846572222
 20
4.3381244215166488
 30
0.0
 11
3.4889722846572222
 21
3.3381244215166488
 31
0.0
  0
LINE
  5
563A
  8
HIDDEN
 10
3.5689722846572169
 20
1.590124421516655
 30
0.0
 11
3.5689722846572169
 21
3.1221244215166482
 31
0.0
  0
LINE
  5
563B
  8
HIDDEN
 10
3.5689722846572169
 20
3.1221244215166482
 30
0.0
 11
3.3189722846572169
 21
3.1221244215166482
 31
0.0
  0
LINE
  5
563C
  8
HIDDEN
 10
3.3189722846572169
 20
3.1221244215166482
 30
0.0
 11
3.3189722846572169
 21
1.746628963851965
 31
0.0
  0
LINE
  5
563D
  8
HIDDEN
 10
3.611472284657292
 20
1.7081244215166611
 30
0.0
 11
3.6114722846572209
 21
3.3381244215166488
 31
0.0
  0
LINE
  5
563E
  8
HIDDEN
 10
3.6114722846572209
 20
3.3381244215166488
 30
0.0
 11
3.2764722846572241
 21
3.3381244215166488
 31
0.0
  0
LINE
  5
563F
  8
HIDDEN
 10
3.2764722846572241
 20
3.3381244215166488
 30
0.0
 11
3.2764722846572201
 21
1.9635061642119851
 31
0.0
  0
SOLID
  5
5640
  8
DIM
 10
5.0034025381978271
 20
2.3158360898711812
 30
0.0
 11
4.9960096473169102
 21
2.6807269573431181
 31
0.0
 12
5.1213459065194868
 22
2.3379576148850969
 32
0.0
 13
5.1213459065194868
 23
2.3379576148850969
 33
0.0
  0
POLYLINE
  5
5641
  8
DIM
 66
     1
 10
0.0
 20
0.0
 30
0.0
  0
VERTEX
  5
5730
  8
DIM
 10
5.062374222358657
 20
2.3268968523781388
 30
0.0
  0
VERTEX
  5
5731
  8
DIM
 10
5.356791176574176
 20
0.7571801511408652
 30
0.0
  0
VERTEX
  5
5732
  8
DIM
 10
5.7167911765741763
 20
0.7571801511408652
 30
0.0
  0
SEQEND
  5
5733
  8
DIM
  0
LINE
  5
5642
  8
DIM
 10
7.5309722846572562
 20
8.0136809273243266
 30
0.0
 11
7.5309722846572562
 21
7.4524313493760754
 31
0.0
  0
LINE
  5
5643
  8
DIM
 10
3.9879722846572241
 20
8.6026809273243412
 30
0.0
 11
3.9879722846572241
 21
7.4524313493760754
 31
0.0
  0
LINE
  5
5644
  8
DIM
 10
7.170972284657255
 20
7.6384313493760754
 30
0.0
 11
6.3144722846572403
 21
7.6384313493760754
 31
0.0
  0
LINE
  5
5645
  8
DIM
 10
4.3479722846572253
 20
7.6384313493760754
 30
0.0
 11
5.20447228465724
 21
7.6384313493760754
 31
0.0
  0
SOLID
  5
5646
  8
DIM
 10
7.170972284657255
 20
7.6984313493760741
 30
0.0
 11
7.170972284657255
 21
7.5784313493760749
 31
0.0
 12
7.5309722846572562
 22
7.6384313493760754
 32
0.0
 13
7.5309722846572562
 23
7.6384313493760754
 33
0.0
  0
SOLID
  5
5647
  8
DIM
 10
4.3479722846572253
 20
7.6984313493760741
 30
0.0
 11
4.3479722846572253
 21
7.5784313493760749
 31
0.0
 12
3.9879722846572241
 22
7.6384313493760754
 32
0.0
 13
3.9879722846572241
 23
7.6384313493760754
 33
0.0
  0
TEXT
  5
5648
  8
OBJECT
 10
5.3844722846572397
 20
7.5134313493760754
 30
0.0
 40
0.25
  1
3.543
 41
0.75
  0
SOLID
  5
5649
  8
DIM
 10
4.1319664520650683
 20
20.464194030703862
 30
0.0
 11
4.4529761752735899
 21
20.63783952475881
 31
0.0
 12
4.2056357865265941
 22
20.369469012044611
 32
0.0
 13
4.2056357865265941
 23
20.369469012044611
 33
0.0
1001
ACAD
1000
DSTYLE
1002
{
1070
   147
1040
0.09
1070
    77
1070
     0
1002
}
  0
POLYLINE
  5
564A
  8
DIM
 66
     1
 10
0.0
 20
0.0
 30
0.0
1001
ACAD
1000
DSTYLE
1002
{
1070
   147
1040
0.09
1070
    77
1070
     0
1002
}
  0
VERTEX
  5
5734
  8
DIM
 10
4.1688011192958312
 20
20.416831521374242
 30
0.0
  0
VERTEX
  5
5735
  8
DIM
 10
2.86047053769154
 20
19.399319521200731
 30
0.0
  0
VERTEX
  5
5736
  8
DIM
 10
2.500470537691541
 20
19.399319521200731
 30
0.0
  0
SEQEND
  5
5737
  8
DIM
  0
SOLID
  5
564B
  8
DIM
 10
4.0731174024471031
 20
24.894854946042901
 30
0.0
 11
4.4281631980265104
 21
24.979368158272621
 31
0.0
 12
4.1197187575259013
 22
24.784273240029549
 32
0.0
 13
4.1197187575259013
 23
24.784273240029549
 33
0.0
1001
ACAD
1000
DSTYLE
1002
{
1070
   147
1040
0.09
1070
    77
1070
     0
1002
}
  0
POLYLINE
  5
564C
  8
DIM
 66
     1
 10
0.0
 20
0.0
 30
0.0
1001
ACAD
1000
DSTYLE
1002
{
1070
   147
1040
0.09
1070
    77
1070
     0
1002
}
  0
VERTEX
  5
5738
  8
DIM
 10
4.0964180799865018
 20
24.83956409303623
 30
0.0
  0
VERTEX
  5
5739
  8
DIM
 10
2.7723431638737712
 20
24.281572291849361
 30
0.0
  0
VERTEX
  5
573A
  8
DIM
 10
2.4123431638737709
 20
24.281572291849361
 30
0.0
  0
SEQEND
  5
573B
  8
DIM
  0
SOLID
  5
564D
  8
DIM
 10
4.8786031409015589
 20
24.821928651498649
 30
0.0
 11
5.1815816614716388
 21
25.02540841971447
 31
0.0
 12
4.960973796569939
 22
24.73466425392002
 32
0.0
 13
4.960973796569939
 23
24.73466425392002
 33
0.0
  0
POLYLINE
  5
564E
  8
DIM
 66
     1
 10
0.0
 20
0.0
 30
0.0
  0
VERTEX
  5
573C
  8
DIM
 10
4.9197884687357494
 20
24.778296452709331
 30
0.0
  0
VERTEX
  5
573D
  8
DIM
 10
2.7804788002601688
 20
22.758958154851289
 30
0.0
  0
SEQEND
  5
573E
  8
DIM
  0
SOLID
  5
564F
  8
DIM
 10
4.8665935844698911
 20
21.203072705193058
 30
0.0
 11
5.1131605582660447
 21
20.933991439711779
 31
0.0
 12
4.7926519293838634
 22
21.108560104746669
 32
0.0
 13
4.7926519293838634
 23
21.108560104746669
 33
0.0
  0
POLYLINE
  5
5650
  8
DIM
 66
     1
 10
0.0
 20
0.0
 30
0.0
  0
VERTEX
  5
573F
  8
DIM
 10
4.8296227569268773
 20
21.155816404969858
 30
0.0
  0
VERTEX
  5
5740
  8
DIM
 10
2.7804788002601701
 20
22.758958154851289
 30
0.0
  0
VERTEX
  5
5741
  8
DIM
 10
2.4204788002601698
 20
22.758958154851289
 30
0.0
  0
SEQEND
  5
5742
  8
DIM
  0
TEXT
  5
5651
  8
OBJECT
 10
0.2579705376915409
 20
19.274319521200731
 30
0.0
 40
0.25
  1
LOWER PANEL
 41
0.75
  0
TEXT
  5
5652
  8
OBJECT
 10
0.2323431638737712
 20
24.156572291849351
 30
0.0
 40
0.25
  1
UPPER PANEL
 41
0.75
  0
TEXT
  5
5653
  8
OBJECT
 10
0.5529788002601707
 20
22.633958154851289
 30
0.0
 40
0.25
  1
REMOVABLE
 41
0.75
  0
TEXT
  5
5654
  8
OBJECT
 10
0.8654788002601705
 20
22.217291488184621
 30
0.0
 40
0.25
  1
ALUMINUM
 41
0.75
  0
TEXT
  5
5655
  8
OBJECT
 10
1.1779788002601701
 20
21.80062482151796
 30
0.0
 40
0.25
  1
PANELS
 41
0.75
  0
TEXT
  5
5656
  8
OBJECT
 10
0.6779788002601707
 20
21.383958154851289
 30
0.0
 40
0.25
  1
(PRESSURE
 41
0.75
  0
TEXT
  5
5657
  8
OBJECT
 10
0.6779788002601707
 20
20.967291488184621
 30
0.0
 40
0.25
  1
SENSITIVE
 41
0.75
  0
TEXT
  5
5658
  8
OBJECT
 10
0.9904788002601705
 20
20.55062482151796
 30
0.0
 40
0.25
  1
TAPE ON
 41
0.75
  0
TEXT
  5
5659
  8
OBJECT
 10
0.7404788002601707
 20
20.133958154851289
 30
0.0
 40
0.25
  1
ONE SIDE)
 41
0.75
  0
LINE
  5
565A
  8
DIM
 10
11.55347228465722
 20
12.388680927324341
 30
0.0
 11
13.51770399537833
 21
12.388680927324341
 31
0.0
  0
LINE
  5
565B
  8
DIM
 10
11.19897228465722
 20
16.049680927324331
 30
0.0
 11
13.51770399537833
 21
16.049680927324331
 31
0.0
  0
LINE
  5
565C
  8
DIM
 10
13.33170399537833
 20
12.74868092732433
 30
0.0
 11
13.33170399537833
 21
13.914180927324329
 31
0.0
  0
LINE
  5
565D
  8
DIM
 10
13.33170399537833
 20
15.689680927324339
 30
0.0
 11
13.33170399537833
 21
14.524180927324331
 31
0.0
  0
SOLID
  5
565E
  8
DIM
 10
13.27170399537833
 20
12.74868092732433
 30
0.0
 11
13.391703995378331
 21
12.74868092732433
 31
0.0
 12
13.33170399537833
 22
12.388680927324341
 32
0.0
 13
13.33170399537833
 23
12.388680927324341
 33
0.0
  0
SOLID
  5
565F
  8
DIM
 10
13.27170399537833
 20
15.689680927324339
 30
0.0
 11
13.391703995378331
 21
15.689680927324339
 31
0.0
 12
13.33170399537833
 22
16.049680927324331
 32
0.0
 13
13.33170399537833
 23
16.049680927324331
 33
0.0
  0
TEXT
  5
5660
  8
OBJECT
 10
12.98795399537833
 20
14.09418092732434
 30
0.0
 40
0.25
  1
3.661
 41
0.75
  0
LINE
  5
5661
  8
DIM
 10
16.045164673499759
 20
10.769171940309979
 30
0.0
 11
16.045164673499759
 21
10.272586380886761
 31
0.0
  0
LINE
  5
5662
  8
DIM
 10
16.245164673499751
 20
10.373168348502521
 30
0.0
 11
16.245164673499751
 21
10.272586380886761
 31
0.0
  0
LINE
  5
5663
  8
DIM
 10
15.685164673499759
 20
10.458586380886761
 30
0.0
 11
15.32516467349976
 21
10.458586380886761
 31
0.0
  0
LINE
  5
5664
  8
DIM
 10
16.60516467349975
 20
10.458586380886761
 30
0.0
 11
16.96516467349975
 21
10.458586380886761
 31
0.0
  0
SOLID
  5
5665
  8
DIM
 10
15.685164673499759
 20
10.518586380886759
 30
0.0
 11
15.685164673499759
 21
10.39858638088676
 31
0.0
 12
16.045164673499759
 22
10.458586380886761
 32
0.0
 13
16.045164673499759
 23
10.458586380886761
 33
0.0
  0
SOLID
  5
5666
  8
DIM
 10
16.60516467349975
 20
10.518586380886759
 30
0.0
 11
16.60516467349975
 21
10.39858638088676
 31
0.0
 12
16.245164673499751
 22
10.458586380886761
 32
0.0
 13
16.245164673499751
 23
10.458586380886761
 33
0.0
  0
TEXT
  5
5667
  8
OBJECT
 10
17.14516467349975
 20
10.333586380886761
 30
0.0
 40
0.25
  1
0.200
 41
0.75
  0
LINE
  5
5668
  8
HIDDEN
 10
11.66297228465722
 20
3.3381244215166488
 30
0.0
 11
11.66297228465722
 21
4.3381244215166488
 31
0.0
  0
LINE
  5
5669
  8
HIDDEN
 10
11.66297228465722
 20
4.3381244215166488
 30
0.0
 11
11.57297228465722
 21
4.3381244215166488
 31
0.0
  0
LINE
  5
566A
  8
HIDDEN
 10
11.57297228465722
 20
4.3381244215166488
 30
0.0
 11
11.57297228465722
 21
3.3381244215166488
 31
0.0
  0
LINE
  5
566B
  8
HIDDEN
 10
11.49297228465722
 20
1.590124421516655
 30
0.0
 11
11.49297228465722
 21
3.1221244215166482
 31
0.0
  0
LINE
  5
566C
  8
HIDDEN
 10
11.49297228465722
 20
3.1221244215166482
 30
0.0
 11
11.74297228465722
 21
3.1221244215166482
 31
0.0
  0
LINE
  5
566D
  8
HIDDEN
 10
11.74297228465722
 20
3.1221244215166482
 30
0.0
 11
11.74297228465722
 21
1.746628963851965
 31
0.0
  0
LINE
  5
566E
  8
HIDDEN
 10
11.450472284657151
 20
1.7081244215166611
 30
0.0
 11
11.45047228465722
 21
3.3381244215166488
 31
0.0
  0
LINE
  5
566F
  8
HIDDEN
 10
11.45047228465722
 20
3.3381244215166488
 30
0.0
 11
11.785472284657221
 21
3.3381244215166488
 31
0.0
  0
LINE
  5
5670
  8
HIDDEN
 10
11.785472284657221
 20
3.3381244215166488
 30
0.0
 11
11.78547228465723
 21
1.9635061642119851
 31
0.0
  0
LINE
  5
5671
  8
DIM
 10
16.245164673499751
 20
9.3272454571408119
 30
0.0
 11
16.245164673499751
 21
9.2589245382219332
 31
0.0
  0
LINE
  5
5672
  8
DIM
 10
15.499164673499759
 20
9.3272454571408119
 30
0.0
 11
15.499164673499759
 21
9.2589245382219332
 31
0.0
  0
LINE
  5
5673
  8
DIM
 10
16.60516467349975
 20
9.4449245382219331
 30
0.0
 11
16.96516467349975
 21
9.4449245382219331
 31
0.0
  0
LINE
  5
5674
  8
DIM
 10
15.13916467349976
 20
9.4449245382219331
 30
0.0
 11
14.779164673499761
 21
9.4449245382219331
 31
0.0
  0
SOLID
  5
5675
  8
DIM
 10
16.60516467349975
 20
9.5049245382219336
 30
0.0
 11
16.60516467349975
 21
9.3849245382219326
 31
0.0
 12
16.245164673499751
 22
9.4449245382219331
 32
0.0
 13
16.245164673499751
 23
9.4449245382219331
 33
0.0
  0
SOLID
  5
5676
  8
DIM
 10
15.13916467349976
 20
9.5049245382219336
 30
0.0
 11
15.13916467349976
 21
9.3849245382219326
 31
0.0
 12
15.499164673499759
 22
9.4449245382219331
 32
0.0
 13
15.499164673499759
 23
9.4449245382219331
 33
0.0
  0
TEXT
  5
5677
  8
OBJECT
 10
13.880414673499761
 20
9.3199245382219331
 30
0.0
 40
0.25
  1
0.746
 41
0.75
  0
LINE
  5
5678
  8
DIM
 10
12.14347228465722
 20
12.388680927324341
 30
0.0
 11
13.51770399537833
 21
12.388680927324341
 31
0.0
  0
LINE
  5
5679
  8
DIM
 10
11.19897228465722
 20
8.7276809273243394
 30
0.0
 11
13.51770399537833
 21
8.7276809273243376
 31
0.0
  0
LINE
  5
567A
  8
DIM
 10
13.33170399537833
 20
12.02868092732434
 30
0.0
 11
13.33170399537833
 21
10.863180927324329
 31
0.0
  0
LINE
  5
567B
  8
DIM
 10
13.33170399537833
 20
9.0876809273243371
 30
0.0
 11
13.33170399537833
 21
10.25318092732433
 31
0.0
  0
SOLID
  5
567C
  8
DIM
 10
13.27170399537833
 20
12.02868092732434
 30
0.0
 11
13.391703995378331
 21
12.02868092732434
 31
0.0
 12
13.33170399537833
 22
12.388680927324341
 32
0.0
 13
13.33170399537833
 23
12.388680927324341
 33
0.0
  0
SOLID
  5
567D
  8
DIM
 10
13.27170399537833
 20
9.0876809273243371
 30
0.0
 11
13.391703995378331
 21
9.0876809273243371
 31
0.0
 12
13.33170399537833
 22
8.7276809273243376
 32
0.0
 13
13.33170399537833
 23
8.7276809273243376
 33
0.0
  0
TEXT
  5
567E
  8
OBJECT
 10
12.987953995378319
 20
10.43318092732434
 30
0.0
 40
0.25
  1
3.661
 41
0.75
  0
LINE
  5
567F
  8
HIDDEN
 10
16.36316467349976
 20
8.6566809273243397
 30
0.0
 11
15.68016467349976
 21
8.6566809273243397
 31
0.0
  0
LINE
  5
5680
  8
HIDDEN
 10
15.68016467349976
 20
8.6566809273243397
 30
0.0
 11
15.68016467349976
 21
8.4066809273243397
 31
0.0
  0
LINE
  5
5681
  8
HIDDEN
 10
15.68016467349976
 20
8.4066809273243397
 30
0.0
 11
16.199160131164462
 21
8.4066809273243397
 31
0.0
  0
LINE
  5
5682
  8
HIDDEN
 10
16.245164673499751
 20
8.8526809273243288
 30
0.0
 11
16.045164673499759
 21
8.8491899143386874
 31
0.0
  0
LINE
  5
5683
  8
HIDDEN
 10
16.045164673499759
 20
8.8491899143386874
 30
0.0
 11
16.045164673499759
 21
8.6991809273243881
 31
0.0
  0
LINE
  5
5684
  8
HIDDEN
 10
16.045164673499759
 20
10.96868092732433
 30
0.0
 11
16.280164673499758
 21
10.96868092732433
 31
0.0
  0
LINE
  5
5685
  8
HIDDEN
 10
16.280164673499758
 20
10.96868092732433
 30
0.0
 11
16.280164673499769
 21
11.06268092732433
 31
0.0
  0
LINE
  5
5686
  8
HIDDEN
 10
16.280164673499769
 20
11.06268092732433
 30
0.0
 11
16.045164673499759
 21
11.06268092732433
 31
0.0
  0
LINE
  5
5687
  8
HIDDEN
 10
16.245164673499751
 20
10.89068092732434
 30
0.0
 11
16.045164673499759
 21
10.894171940309979
 31
0.0
  0
LINE
  5
5688
  8
HIDDEN
 10
16.045164673499759
 20
10.894171940309979
 30
0.0
 11
16.045164673499759
 21
11.137189914338689
 31
0.0
  0
LINE
  5
5689
  8
HIDDEN
 10
16.045164673499759
 20
11.137189914338689
 30
0.0
 11
16.245164673499751
 21
11.14068092732434
 31
0.0
  0
LINE
  5
568A
  8
HIDDEN
 10
16.045164673499759
 20
12.34168092732433
 30
0.0
 11
16.280164673499758
 21
12.34168092732433
 31
0.0
  0
LINE
  5
568B
  8
HIDDEN
 10
16.280164673499758
 20
12.34168092732433
 30
0.0
 11
16.280164673499769
 21
12.43568092732434
 31
0.0
  0
LINE
  5
568C
  8
HIDDEN
 10
16.280164673499769
 20
12.43568092732434
 30
0.0
 11
16.045164673499759
 21
12.435680927324331
 31
0.0
  0
LINE
  5
568D
  8
HIDDEN
 10
16.245164673499751
 20
12.263680927324341
 30
0.0
 11
16.045164673499759
 21
12.26717194030998
 31
0.0
  0
LINE
  5
568E
  8
HIDDEN
 10
16.045164673499759
 20
12.26717194030998
 30
0.0
 11
16.045164673499759
 21
12.510189914338691
 31
0.0
  0
LINE
  5
568F
  8
HIDDEN
 10
16.045164673499759
 20
12.510189914338691
 30
0.0
 11
16.245164673499751
 21
12.513680927324341
 31
0.0
  0
LINE
  5
5690
  8
DIM
 10
19.507013892103121
 20
21.99054620915075
 30
0.0
 11
19.507013892103121
 21
22.459241809752399
 31
0.0
  0
LINE
  5
5691
  8
DIM
 10
18.023698482270639
 20
19.34918778921994
 30
0.0
 11
18.023698482270639
 21
22.459241809752399
 31
0.0
  0
LINE
  5
5692
  8
DIM
 10
19.86701389210312
 20
22.273241809752399
 30
0.0
 11
20.22701389210312
 21
22.273241809752399
 31
0.0
  0
LINE
  5
5693
  8
DIM
 10
17.66369848227064
 20
22.273241809752399
 30
0.0
 11
16.97193925794522
 21
22.273241809752399
 31
0.0
  0
SOLID
  5
5694
  8
DIM
 10
19.86701389210312
 20
22.333241809752401
 30
0.0
 11
19.86701389210312
 21
22.2132418097524
 31
0.0
 12
19.507013892103121
 22
22.273241809752399
 32
0.0
 13
19.507013892103121
 23
22.273241809752399
 33
0.0
  0
SOLID
  5
5695
  8
DIM
 10
17.66369848227064
 20
22.333241809752401
 30
0.0
 11
17.66369848227064
 21
22.2132418097524
 31
0.0
 12
18.023698482270639
 22
22.273241809752399
 32
0.0
 13
18.023698482270639
 23
22.273241809752399
 33
0.0
  0
TEXT
  5
5696
  8
OBJECT
 10
16.10443925794522
 20
22.148241809752399
 30
0.0
 40
0.25
  1
1.483
 41
0.75
  0
LINE
  5
5697
  8
DIM
 10
19.507013892103121
 20
26.531528235122039
 30
0.0
 11
19.507013892103121
 21
26.283292963733238
 31
0.0
  0
LINE
  5
5698
  8
DIM
 10
14.978013892103119
 20
26.543178081765198
 30
0.0
 11
14.978013892103119
 21
26.283292963733238
 31
0.0
  0
LINE
  5
5699
  8
DIM
 10
19.147013892103121
 20
26.469292963733238
 30
0.0
 11
18.068172181640271
 21
26.469292963733238
 31
0.0
  0
LINE
  5
569A
  8
DIM
 10
15.33801389210312
 20
26.469292963733238
 30
0.0
 11
16.958172181640279
 21
26.469292963733238
 31
0.0
  0
SOLID
  5
569B
  8
DIM
 10
19.147013892103121
 20
26.52929296373323
 30
0.0
 11
19.147013892103121
 21
26.409292963733229
 31
0.0
 12
19.507013892103121
 22
26.469292963733238
 32
0.0
 13
19.507013892103121
 23
26.469292963733238
 33
0.0
  0
SOLID
  5
569C
  8
DIM
 10
15.33801389210312
 20
26.52929296373323
 30
0.0
 11
15.33801389210312
 21
26.409292963733229
 31
0.0
 12
14.978013892103119
 22
26.469292963733238
 32
0.0
 13
14.978013892103119
 23
26.469292963733238
 33
0.0
  0
TEXT
  5
569D
  8
OBJECT
 10
17.138172181640272
 20
26.344292963733238
 30
0.0
 40
0.25
  1
4.529
 41
0.75
  0
LINE
  5
569E
  8
HIDDEN
 10
18.077013892103128
 20
27.019037222136401
 30
0.0
 11
17.077013892103128
 21
27.01903722213639
 31
0.0
  0
LINE
  5
569F
  8
HIDDEN
 10
17.077013892103128
 20
27.01903722213639
 30
0.0
 11
17.077013892103128
 21
26.92903722213639
 31
0.0
  0
LINE
  5
56A0
  8
HIDDEN
 10
17.077013892103128
 20
26.92903722213639
 30
0.0
 11
18.077013892103128
 21
26.92903722213639
 31
0.0
  0
LINE
  5
56A1
  8
DIM
 10
17.114248198844049
 20
24.381936647463291
 30
0.0
 11
17.009284811605578
 21
24.977213597234361
 31
0.0
  0
LINE
  5
56A2
  8
DIM
 10
19.68530786989475
 20
24.835283836480951
 30
0.0
 11
19.580344482656269
 21
25.43056078625203
 31
0.0
  0
LINE
  5
56A3
  8
DIM
 10
17.396114163736019
 20
24.856552699134181
 30
0.0
 11
17.834613208176972
 21
24.933871911684001
 31
0.0
  0
LINE
  5
56A4
  8
DIM
 10
19.258112252617931
 20
25.18487320023166
 30
0.0
 11
18.819613208176978
 21
25.10755398768184
 31
0.0
  0
SOLID
  5
56A5
  8
DIM
 10
17.38569527307601
 20
24.915641164314909
 30
0.0
 11
17.406533054396039
 21
24.797464233953448
 31
0.0
 12
17.041583372651619
 22
24.794039355174089
 32
0.0
 13
17.041583372651619
 23
24.794039355174089
 33
0.0
  0
SOLID
  5
56A6
  8
DIM
 10
19.247693361957911
 20
25.243961665412389
 30
0.0
 11
19.26853114327794
 21
25.125784735050932
 31
0.0
 12
19.61264304370232
 22
25.247386544191759
 32
0.0
 13
19.61264304370232
 23
25.247386544191759
 33
0.0
  0
TEXT
  5
56A7
  8
OBJECT
 10
18.014613208176971
 20
24.89571294968292
 30
0.0
 40
0.25
  1
2.611
 41
0.75
  0
LINE
  5
56A8
  8
DIM
 10
17.776855923767449
 20
20.624101503566958
 30
0.0
 11
17.73108056241281
 21
20.883706478203919
 31
0.0
  0
LINE
  5
56A9
  8
DIM
 10
19.49872122904199
 20
20.927712814032692
 30
0.0
 11
19.452945867687362
 21
21.187317788669642
 31
0.0
  0
LINE
  5
56AA
  8
DIM
 10
17.408848332374468
 20
20.63801889218356
 30
0.0
 11
17.054317541290079
 21
20.575505548223461
 31
0.0
  0
LINE
  5
56AB
  8
DIM
 10
19.839775219817799
 20
21.066656890569469
 30
0.0
 11
20.194306010902199
 21
21.12917023452956
 31
0.0
  0
SOLID
  5
56AC
  8
DIM
 10
17.398429441714459
 20
20.697107357364288
 30
0.0
 11
17.419267223034481
 21
20.578930427002831
 31
0.0
 12
17.763379123458861
 22
20.700532236143651
 32
0.0
 13
17.763379123458861
 23
20.700532236143651
 33
0.0
  0
SOLID
  5
56AD
  8
DIM
 10
19.829356329157779
 20
21.125745355750201
 30
0.0
 11
19.850194110477819
 21
21.00756842538874
 31
0.0
 12
19.485244428733409
 22
21.00414354660937
 32
0.0
 13
19.485244428733409
 23
21.00414354660937
 33
0.0
  0
TEXT
  5
56AE
  8
OBJECT
 10
18.165331232968679
 20
20.70701963762145
 30
0.0
 40
0.25
  1
1.748
 41
0.75
  0
LINE
  5
56AF
  8
DIM
 10
14.78522638302063
 20
25.287120152739188
 30
0.0
 11
13.79231605481487
 21
25.553169673338441
 31
0.0
  0
LINE
  5
56B0
  8
DIM
 10
14.66251465190599
 20
24.74056073694943
 30
0.0
 11
13.685334058777419
 21
24.74056073694943
 31
0.0
  0
ARC
  5
56B1
  8
DIM
 10
16.825013892103119
 20
24.74056073694944
 30
0.0
 40
2.9536798333257028
 50
151.02470797975579
 51
158.01235398987779
  0
ARC
  5
56B2
  8
DIM
 10
16.825013892103119
 20
24.74056073694944
 30
0.0
 40
2.9536798333257028
 50
186.98764601012201
 51
193.97529202024401
  0
SOLID
  5
56B3
  8
DIM
 10
14.14307260004167
 20
25.827406014805401
 30
0.0
 11
14.02926965708636
 21
25.865470304825191
 31
0.0
 12
13.971978258504629
 22
25.50502933094938
 32
0.0
 13
13.971978258504629
 23
25.50502933094938
 33
0.0
  0
SOLID
  5
56B4
  8
DIM
 10
13.83338431161736
 20
24.377573386356481
 30
0.0
 11
13.95316127652103
 21
24.384886298120399
 31
0.0
 12
13.871334058777419
 22
24.74056073694943
 32
0.0
 13
13.871334058777419
 23
24.74056073694943
 33
0.0
  0
TEXT
  5
56B5
  8
OBJECT
 10
13.709103199208901
 20
25.001093318630598
 30
0.0
 40
0.25
  1
15°
 41
0.75
  0
LINE
  5
56B6
  8
DIM
 10
19.825013892103119
 20
19.199723005338829
 30
0.0
 11
19.825013892103119
 21
18.121072224953199
 31
0.0
  0
LINE
  5
56B7
  8
DIM
 10
17.850013892103121
 20
18.782719918594289
 30
0.0
 11
17.850013892103121
 21
18.121072224953199
 31
0.0
  0
LINE
  5
56B8
  8
DIM
 10
20.185013892103122
 20
18.30707222495321
 30
0.0
 11
20.545013892103121
 21
18.30707222495321
 31
0.0
  0
LINE
  5
56B9
  8
DIM
 10
17.490013892103121
 20
18.30707222495321
 30
0.0
 11
17.130013892103118
 21
18.30707222495321
 31
0.0
  0
SOLID
  5
56BA
  8
DIM
 10
20.185013892103122
 20
18.367072224953201
 30
0.0
 11
20.185013892103122
 21
18.247072224953211
 31
0.0
 12
19.825013892103119
 22
18.30707222495321
 32
0.0
 13
19.825013892103119
 23
18.30707222495321
 33
0.0
  0
SOLID
  5
56BB
  8
DIM
 10
17.490013892103121
 20
18.367072224953201
 30
0.0
 11
17.490013892103121
 21
18.247072224953211
 31
0.0
 12
17.850013892103121
 22
18.30707222495321
 32
0.0
 13
17.850013892103121
 23
18.30707222495321
 33
0.0
  0
TEXT
  5
56BC
  8
OBJECT
 10
18.493763892103122
 20
18.182072224953199
 30
0.0
 40
0.25
  1
1.975
 41
0.75
  0
LINE
  5
56BD
  8
DIM
 10
17.850013892103121
 20
17.733429195381209
 30
0.0
 11
17.850013892103121
 21
17.30642048310623
 31
0.0
  0
LINE
  5
56BE
  8
DIM
 10
17.871719914311491
 20
18.78461894946777
 30
0.0
 11
18.12807662097471
 21
17.330747819631579
 31
0.0
  0
ARC
  5
56BF
  8
DIM
 10
17.850013892103121
 20
18.907719918594299
 30
0.0
 40
1.415299435488065
 50
240.52829772446819
 51
269.99999999999977
  0
LINE
  5
56C0
  8
DIM
 10
17.153695569128079
 20
17.675561939607
 30
0.0
 11
16.793695569128069
 21
17.675561939607
 31
0.0
  0
ARC
  5
56C1
  8
DIM
 10
17.850013892103131
 20
18.907719918594299
 30
0.0
 40
1.415299435488065
 50
240.7729758579635
 51
255.38648792898169
  0
ARC
  5
56C2
  8
DIM
 10
17.850013892103131
 20
18.907719918594299
 30
0.0
 40
1.415299435488065
 50
294.61351207101808
 51
309.22702414203633
  0
SOLID
  5
56C3
  8
DIM
 10
17.500568183093311
 20
17.59771861440321
 30
0.0
 11
17.48530639505158
 21
17.478693080059649
 31
0.0
 12
17.850013892103121
 22
17.49242048310623
 32
0.0
 13
17.850013892103121
 23
17.49242048310623
 33
0.0
  0
SOLID
  5
56C4
  8
DIM
 10
18.457328569129832
 20
17.563734000987321
 30
0.0
 11
18.42163007480692
 21
17.678301088333889
 31
0.0
 12
18.095778059928659
 22
17.513922061691851
 32
0.0
 13
18.095778059928659
 23
17.513922061691851
 33
0.0
  0
TEXT
  5
56C5
  8
OBJECT
 10
16.26994556912808
 20
17.550561939607011
 30
0.0
 40
0.25
  1
10°
 41
0.75
  0
LINE
  5
56C6
  8
DIM
 10
14.860013892103121
 20
27.287068720860091
 30
0.0
 11
14.860013892103121
 21
28.21299405325405
 31
0.0
  0
LINE
  5
56C7
  8
DIM
 10
19.825013892103119
 20
27.034351438933971
 30
0.0
 11
19.825013892103119
 21
28.21299405325405
 31
0.0
  0
LINE
  5
56C8
  8
DIM
 10
15.22001389210312
 20
28.02699405325405
 30
0.0
 11
16.787513892103121
 21
28.02699405325405
 31
0.0
  0
LINE
  5
56C9
  8
DIM
 10
19.465013892103119
 20
28.02699405325405
 30
0.0
 11
17.89751389210312
 21
28.02699405325405
 31
0.0
  0
SOLID
  5
56CA
  8
DIM
 10
15.22001389210312
 20
28.086994053254049
 30
0.0
 11
15.22001389210312
 21
27.966994053254052
 31
0.0
 12
14.860013892103121
 22
28.02699405325405
 32
0.0
 13
14.860013892103121
 23
28.02699405325405
 33
0.0
  0
SOLID
  5
56CB
  8
DIM
 10
19.465013892103119
 20
28.086994053254049
 30
0.0
 11
19.465013892103119
 21
27.966994053254052
 31
0.0
 12
19.825013892103119
 22
28.02699405325405
 32
0.0
 13
19.825013892103119
 23
28.02699405325405
 33
0.0
  0
TEXT
  5
56CC
  8
OBJECT
 10
16.967513892103121
 20
27.90199405325405
 30
0.0
 40
0.25
  1
4.965
 41
0.75
  0
LINE
  5
56CD
  8
DIM
 10
15.87044470247662
 20
25.196145083248631
 30
0.0
 11
16.12174025014653
 21
25.128810644188938
 31
0.0
  0
LINE
  5
56CE
  8
DIM
 10
16.352307462523619
 20
26.994481386019391
 30
0.0
 11
16.603603010193531
 21
26.927146946959699
 31
0.0
  0
LINE
  5
56CF
  8
DIM
 10
16.035252902693671
 20
25.524684284042081
 30
0.0
 11
16.101284922788771
 21
25.771119137963389
 31
0.0
  0
LINE
  5
56D0
  8
DIM
 10
16.330765950266859
 20
26.62755399188471
 30
0.0
 11
16.264733930171762
 21
26.381119137963399
 31
0.0
  0
SOLID
  5
56D1
  8
DIM
 10
15.977297353116329
 20
25.540213426748231
 30
0.0
 11
16.093208452271021
 21
25.509155141335921
 31
0.0
 12
15.94207804645677
 22
25.17695098657801
 32
0.0
 13
15.94207804645677
 23
25.17695098657801
 33
0.0
  0
SOLID
  5
56D2
  8
DIM
 10
16.272810400689512
 20
26.64308313459086
 30
0.0
 11
16.388721499844198
 21
26.61202484917856
 31
0.0
 12
16.423940806503769
 22
26.975287289348771
 32
0.0
 13
16.423940806503769
 23
26.975287289348771
 33
0.0
  0
TEXT
  5
56D3
  8
OBJECT
 10
15.83925942648027
 20
25.951119137963389
 30
0.0
 40
0.25
  1
1.862
 41
0.75
  0
LINE
  5
56D4
  8
DIM
 10
16.700013892103119
 20
27.290560736949441
 30
0.0
 11
13.14986287071561
 21
27.290560736949441
 31
0.0
  0
LINE
  5
56D5
  8
DIM
 10
16.700013892103119
 20
24.74056073694944
 30
0.0
 11
13.14986287071561
 21
24.74056073694944
 31
0.0
  0
LINE
  5
56D6
  8
DIM
 10
13.33586287071561
 20
26.930560736949442
 30
0.0
 11
13.33586287071561
 21
26.320560736949439
 31
0.0
  0
LINE
  5
56D7
  8
DIM
 10
13.33586287071561
 20
25.100560736949429
 30
0.0
 11
13.33586287071561
 21
25.710560736949439
 31
0.0
  0
SOLID
  5
56D8
  8
DIM
 10
13.27586287071561
 20
26.930560736949442
 30
0.0
 11
13.395862870715611
 21
26.930560736949442
 31
0.0
 12
13.33586287071561
 22
27.290560736949441
 32
0.0
 13
13.33586287071561
 23
27.290560736949441
 33
0.0
  0
SOLID
  5
56D9
  8
DIM
 10
13.27586287071561
 20
25.100560736949429
 30
0.0
 11
13.395862870715611
 21
25.100560736949429
 31
0.0
 12
13.33586287071561
 22
24.74056073694944
 32
0.0
 13
13.33586287071561
 23
24.74056073694944
 33
0.0
  0
TEXT
  5
56DA
  8
OBJECT
 10
12.97648787071561
 20
25.890560736949439
 30
0.0
 40
0.25
  1
2.550
 41
0.75
  0
TEXT
  5
56DB
  8
OBJECT
 10
12.6535669056316
 20
17.256620752497181
 30
0.0
 40
0.25
  1
0.250 DIA. BOSS WITH
 41
0.75
  0
TEXT
  5
56DC
  8
OBJECT
 10
12.6535669056316
 20
16.839954085830509
 30
0.0
 40
0.25
  1
0.094 DIA. HOLE
 41
0.75
  0
TEXT
  5
56DD
  8
OBJECT
 10
12.6535669056316
 20
16.423287419163849
 30
0.0
 40
0.25
  1
(7) PLACES
 41
0.75
  0
LINE
  5
56DE
  8
DIM
 10
11.58797228465723
 20
24.332769529015611
 30
0.0
 11
13.517703995378341
 21
24.332769529015611
 31
0.0
  0
LINE
  5
56DF
  8
DIM
 10
11.58797228465723
 20
19.29573417328109
 30
0.0
 11
13.517703995378341
 21
19.29573417328109
 31
0.0
  0
LINE
  5
56E0
  8
DIM
 10
13.331703995378341
 20
23.972769529015611
 30
0.0
 11
13.331703995378341
 21
21.83467293875832
 31
0.0
  0
LINE
  5
56E1
  8
DIM
 10
13.33170399537833
 20
19.65573417328109
 30
0.0
 11
13.331703995378341
 21
21.224672938758321
 31
0.0
  0
SOLID
  5
56E2
  8
DIM
 10
13.27170399537834
 20
23.972769529015611
 30
0.0
 11
13.391703995378339
 21
23.972769529015611
 31
0.0
 12
13.331703995378341
 22
24.332769529015611
 32
0.0
 13
13.331703995378341
 23
24.332769529015611
 33
0.0
  0
SOLID
  5
56E3
  8
DIM
 10
13.27170399537833
 20
19.65573417328109
 30
0.0
 11
13.391703995378339
 21
19.65573417328109
 31
0.0
 12
13.33170399537833
 22
19.29573417328109
 32
0.0
 13
13.33170399537833
 23
19.29573417328109
 33
0.0
  0
TEXT
  5
56E4
  8
OBJECT
 10
13.01920399537833
 20
21.404672938758331
 30
0.0
 40
0.25
  1
5.115
 41
0.75
  0
LINE
  5
56E5
  8
DIM
 10
11.14797228465723
 20
24.24008167514873
 30
0.0
 11
12.8250616723278
 21
24.24008167514873
 31
0.0
  0
LINE
  5
56E6
  8
DIM
 10
11.14797228465723
 20
19.424061107200629
 30
0.0
 11
12.8250616723278
 21
19.424061107200629
 31
0.0
  0
LINE
  5
56E7
  8
DIM
 10
12.6390616723278
 20
23.88008167514873
 30
0.0
 11
12.6390616723278
 21
22.38259156696569
 31
0.0
  0
LINE
  5
56E8
  8
DIM
 10
12.6390616723278
 20
19.784061107200628
 30
0.0
 11
12.6390616723278
 21
21.772591566965691
 31
0.0
  0
SOLID
  5
56E9
  8
DIM
 10
12.5790616723278
 20
23.88008167514873
 30
0.0
 11
12.699061672327799
 21
23.88008167514873
 31
0.0
 12
12.6390616723278
 22
24.24008167514873
 32
0.0
 13
12.6390616723278
 23
24.24008167514873
 33
0.0
  0
SOLID
  5
56EA
  8
DIM
 10
12.5790616723278
 20
19.784061107200628
 30
0.0
 11
12.699061672327799
 21
19.784061107200628
 31
0.0
 12
12.6390616723278
 22
19.424061107200629
 32
0.0
 13
12.6390616723278
 23
19.424061107200629
 33
0.0
  0
TEXT
  5
56EB
  8
OBJECT
 10
12.2796866723278
 20
21.952591566965701
 30
0.0
 40
0.25
  1
4.890
 41
0.75
  0
SOLID
  5
56EC
  8
DIM
 10
11.4274817564665
 20
16.39510767154125
 30
0.0
 11
11.159948098427069
 21
16.146862345671771
 31
0.0
 12
11.332508480074271
 22
16.468456678155679
 32
0.0
 13
11.332508480074271
 23
16.468456678155679
 33
0.0
  0
POLYLINE
  5
56ED
  8
DIM
 66
     1
 10
0.0
 20
0.0
 30
0.0
  0
VERTEX
  5
5743
  8
DIM
 10
11.379995118270379
 20
16.431782174848461
 30
0.0
  0
VERTEX
  5
5744
  8
DIM
 10
12.1135669056316
 20
17.381620752497181
 30
0.0
  0
VERTEX
  5
5745
  8
DIM
 10
12.4735669056316
 20
17.381620752497181
 30
0.0
  0
SEQEND
  5
5746
  8
DIM
  0
LINE
  5
56EE
  8
HIDDEN
 10
16.36316467349976
 20
16.12068092732434
 30
0.0
 11
14.831164673499771
 21
16.12068092732434
 31
0.0
  0
LINE
  5
56EF
  8
HIDDEN
 10
14.831164673499771
 20
16.12068092732434
 30
0.0
 11
14.831164673499771
 21
16.37068092732434
 31
0.0
  0
LINE
  5
56F0
  8
HIDDEN
 10
14.831164673499771
 20
16.37068092732434
 30
0.0
 11
16.199160131164462
 21
16.37068092732434
 31
0.0
  0
LINE
  5
56F1
  8
HIDDEN
 10
16.245164673499751
 20
15.92468092732434
 30
0.0
 11
16.045164673499759
 21
15.92817194030998
 31
0.0
  0
LINE
  5
56F2
  8
HIDDEN
 10
16.045164673499759
 20
15.92817194030998
 30
0.0
 11
16.045164673499759
 21
16.078180927324279
 31
0.0
  0
LINE
  5
56F3
  8
DIM
 10
15.2854482433352
 20
25.145839175968629
 30
0.0
 11
14.94009910723201
 21
23.856978653681502
 31
0.0
  0
LINE
  5
56F4
  8
DIM
 10
16.425240718356299
 20
24.840432702747648
 30
0.0
 11
16.079891582253111
 21
23.551572180460521
 31
0.0
  0
LINE
  5
56F5
  8
DIM
 10
14.640506152157011
 20
24.129815713608171
 30
0.0
 11
14.29277285469295
 21
24.222990569845081
 31
0.0
  0
LINE
  5
56F6
  8
DIM
 10
16.47576522210624
 20
23.63805952791337
 30
0.0
 11
16.823498519570311
 21
23.544884671676471
 31
0.0
  0
SOLID
  5
56F7
  8
DIM
 10
14.656035294863161
 20
24.187771263185521
 30
0.0
 11
14.624977009450861
 21
24.071860164030831
 31
0.0
 12
14.98823944962108
 22
24.03664085737126
 32
0.0
 13
14.98823944962108
 23
24.03664085737126
 33
0.0
  0
SOLID
  5
56F8
  8
DIM
 10
16.49129436481239
 20
23.696015077490721
 30
0.0
 11
16.46023607940009
 21
23.58010397833603
 31
0.0
 12
16.12803192464218
 22
23.731234384150291
 32
0.0
 13
16.12803192464218
 23
23.731234384150291
 33
0.0
  0
TEXT
  5
56F9
  8
OBJECT
 10
15.261260687131619
 20
23.758937620760769
 30
0.0
 40
0.25
  1
1.180
 41
0.75
  0
LINE
  5
56FA
  8
DIM
 10
15.1583150133842
 20
25.057741832976781
 30
0.0
 11
14.68364948325295
 21
23.28626595792538
 31
0.0
  0
LINE
  5
56FB
  8
DIM
 10
16.491599522991141
 20
24.70048932534667
 30
0.0
 11
16.016933992859901
 21
22.929013450295258
 31
0.0
  0
LINE
  5
56FC
  8
DIM
 10
14.384056528177959
 20
23.559103017852049
 30
0.0
 11
14.03632323071389
 21
23.652277874088959
 31
0.0
  0
LINE
  5
56FD
  8
DIM
 10
16.412807632713029
 20
23.015500797748121
 30
0.0
 11
16.76054093017709
 21
22.922325941511211
 31
0.0
  0
SOLID
  5
56FE
  8
DIM
 10
14.399585670884109
 20
23.617058567429389
 30
0.0
 11
14.368527385471809
 21
23.501147468274709
 31
0.0
 12
14.73178982564202
 22
23.465928161615139
 32
0.0
 13
14.73178982564202
 23
23.465928161615139
 33
0.0
  0
SOLID
  5
56FF
  8
DIM
 10
16.428336775419179
 20
23.073456347325461
 30
0.0
 11
16.39727849000688
 21
22.957545248170781
 31
0.0
 12
16.065074335248958
 22
23.108675653985031
 32
0.0
 13
16.065074335248958
 23
23.108675653985031
 33
0.0
  0
TEXT
  5
5700
  8
OBJECT
 10
15.07030708044549
 20
23.162301907800089
 30
0.0
 40
0.25
  1
1.380
 41
0.75
  0
LINE
  5
5701
  8
HIDDEN
 10
16.963183223286691
 20
24.824037222136401
 30
0.0
 11
17.14301389210312
 21
24.82403722213639
 31
0.0
  0
LINE
  5
5702
  8
HIDDEN
 10
17.14301389210312
 20
24.82403722213639
 30
0.0
 11
17.14301389210312
 21
24.884037222136389
 31
0.0
  0
LINE
  5
5703
  8
HIDDEN
 10
17.14301389210312
 20
24.884037222136389
 30
0.0
 11
16.825013892103119
 21
24.884037222136389
 31
0.0
  0
LINE
  5
5704
  8
DIM
 10
19.180013892103119
 20
27.3670372221364
 30
0.0
 11
20.710501347805948
 21
27.3670372221364
 31
0.0
  0
LINE
  5
5705
  8
DIM
 10
19.180013892103119
 20
18.867037222136389
 30
0.0
 11
20.710501347805948
 21
18.867037222136389
 31
0.0
  0
LINE
  5
5706
  8
DIM
 10
20.524501347805948
 20
27.0070372221364
 30
0.0
 11
20.524501347805948
 21
23.422037222136399
 31
0.0
  0
LINE
  5
5707
  8
DIM
 10
20.524501347805948
 20
19.227037222136399
 30
0.0
 11
20.524501347805948
 21
22.8120372221364
 31
0.0
  0
SOLID
  5
5708
  8
DIM
 10
20.46450134780595
 20
27.0070372221364
 30
0.0
 11
20.584501347805951
 21
27.0070372221364
 31
0.0
 12
20.524501347805948
 22
27.3670372221364
 32
0.0
 13
20.524501347805948
 23
27.3670372221364
 33
0.0
  0
SOLID
  5
5709
  8
DIM
 10
20.46450134780595
 20
19.227037222136399
 30
0.0
 11
20.584501347805951
 21
19.227037222136399
 31
0.0
 12
20.524501347805948
 22
18.867037222136389
 32
0.0
 13
20.524501347805948
 23
18.867037222136389
 33
0.0
  0
TEXT
  5
570A
  8
OBJECT
 10
20.180751347805941
 20
22.9920372221364
 30
0.0
 40
0.25
  1
8.500
 41
0.75
  0
LINE
  5
570B
  8
HIDDEN
 10
18.926013892103121
 20
19.305037222136399
 30
0.0
 11
18.009442545872488
 21
19.305037222136392
 31
0.0
  0
LINE
  5
570C
  8
HIDDEN
 10
17.97180303753051
 20
19.215037222136392
 30
0.0
 11
18.926013892103121
 21
19.215037222136392
 31
0.0
  0
LINE
  5
570D
  8
HIDDEN
 10
19.825013892103119
 20
19.38503722213639
 30
0.0
 11
19.142013892103119
 21
19.38503722213639
 31
0.0
  0
LINE
  5
570E
  8
HIDDEN
 10
19.142013892103119
 20
19.38503722213639
 30
0.0
 11
19.142013892103119
 21
19.13503722213639
 31
0.0
  0
LINE
  5
570F
  8
HIDDEN
 10
19.142013892103119
 20
19.13503722213639
 30
0.0
 11
19.66100934976782
 21
19.13503722213639
 31
0.0
  0
LINE
  5
5710
  8
HIDDEN
 10
19.451632149407789
 20
19.0925372221364
 30
0.0
 11
18.926013892103121
 21
19.0925372221364
 31
0.0
  0
LINE
  5
5711
  8
HIDDEN
 10
18.926013892103121
 20
19.0925372221364
 30
0.0
 11
18.926013892103121
 21
19.42753722213639
 31
0.0
  0
LINE
  5
5712
  8
HIDDEN
 10
18.926013892103121
 20
19.42753722213639
 30
0.0
 11
19.70701389210312
 21
19.427537222136468
 31
0.0
  0
LINE
  5
5713
  8
HIDDEN
 10
19.70701389210312
 20
19.581037222136381
 30
0.0
 11
19.507013892103121
 21
19.577546209150739
 31
0.0
  0
LINE
  5
5714
  8
HIDDEN
 10
19.507013892103121
 20
19.577546209150739
 30
0.0
 11
19.507013892103121
 21
19.42753722213644
 31
0.0
  0
LINE
  5
5715
  8
HIDDEN
 10
19.70701389210312
 20
22.992037222136389
 30
0.0
 11
19.507013892103121
 21
22.995528235122041
 31
0.0
  0
LINE
  5
5716
  8
HIDDEN
 10
19.507013892103121
 20
22.995528235122041
 30
0.0
 11
19.507013892103121
 21
23.238546209150751
 31
0.0
  0
LINE
  5
5717
  8
HIDDEN
 10
19.507013892103121
 20
23.238546209150751
 30
0.0
 11
19.70701389210312
 21
23.2420372221364
 31
0.0
  0
LINE
  5
5718
  8
HIDDEN
 10
19.507013892103121
 20
21.697037222136391
 30
0.0
 11
19.74201389210312
 21
21.697037222136391
 31
0.0
  0
LINE
  5
5719
  8
HIDDEN
 10
19.74201389210312
 20
21.697037222136391
 30
0.0
 11
19.742013892103131
 21
21.791037222136399
 31
0.0
  0
LINE
  5
571A
  8
HIDDEN
 10
19.742013892103131
 20
21.791037222136399
 30
0.0
 11
19.507013892103121
 21
21.791037222136389
 31
0.0
  0
LINE
  5
571B
  8
HIDDEN
 10
19.70701389210312
 20
21.619037222136399
 30
0.0
 11
19.507013892103121
 21
21.62252823512204
 31
0.0
  0
LINE
  5
571C
  8
HIDDEN
 10
19.507013892103121
 20
21.62252823512204
 30
0.0
 11
19.507013892103121
 21
21.86554620915075
 31
0.0
  0
LINE
  5
571D
  8
HIDDEN
 10
19.507013892103121
 20
21.86554620915075
 30
0.0
 11
19.70701389210312
 21
21.869037222136399
 31
0.0
  0
LINE
  5
571E
  8
HIDDEN
 10
19.507013892103121
 20
23.070037222136389
 30
0.0
 11
19.74201389210312
 21
23.070037222136389
 31
0.0
  0
LINE
  5
571F
  8
HIDDEN
 10
19.74201389210312
 20
23.070037222136389
 30
0.0
 11
19.742013892103131
 21
23.1640372221364
 31
0.0
  0
LINE
  5
5720
  8
HIDDEN
 10
19.742013892103131
 20
23.1640372221364
 30
0.0
 11
19.507013892103121
 21
23.1640372221364
 31
0.0
  0
LINE
  5
5721
  8
HIDDEN
 10
19.825013892103119
 20
26.849037222136399
 30
0.0
 11
18.293013892103129
 21
26.849037222136399
 31
0.0
  0
LINE
  5
5722
  8
HIDDEN
 10
18.293013892103129
 20
26.849037222136399
 30
0.0
 11
18.293013892103129
 21
27.099037222136399
 31
0.0
  0
LINE
  5
5723
  8
HIDDEN
 10
18.293013892103129
 20
27.099037222136399
 30
0.0
 11
19.66100934976782
 21
27.099037222136399
 31
0.0
  0
LINE
  5
5724
  8
HIDDEN
 10
19.70701389210312
 20
26.806537222136392
 30
0.0
 11
18.077013892103128
 21
26.806537222136392
 31
0.0
  0
LINE
  5
5725
  8
HIDDEN
 10
18.077013892103128
 20
26.806537222136392
 30
0.0
 11
18.077013892103128
 21
27.141537222136389
 31
0.0
  0
LINE
  5
5726
  8
HIDDEN
 10
18.077013892103128
 20
27.141537222136389
 30
0.0
 11
19.50751389210313
 21
27.141537222136389
 31
0.0
  0
LINE
  5
5727
  8
HIDDEN
 10
19.70701389210312
 20
26.653037222136401
 30
0.0
 11
19.507013892103121
 21
26.656528235122039
 31
0.0
  0
LINE
  5
5728
  8
HIDDEN
 10
19.507013892103121
 20
26.656528235122039
 30
0.0
 11
19.507013892103121
 21
26.806537222136338
 31
0.0
  0
ENDSEC
  0
EOF
