  0
SECTION
  2
HEADER
  9
$ACADVER
  1
AC1015
  9
$ACADMAINTVER
 70
     6
  9
$DWGCODEPAGE
  3
ANSI_1252
  9
$INSBASE
 10
0.0
 20
0.0
 30
0.0
  9
$EXTMIN
 10
-9.892457008539043
 20
-16.75874321679803
 30
-0.00000001
  9
$EXTMAX
 10
23.4932935460326
 20
20.68274748486138
 30
0.00000001
  9
$LIMMIN
 10
0.0
 20
0.0
  9
$LIMMAX
 10
11.0
 20
8.5
  9
$ORTHOMODE
 70
     1
  9
$REGENMODE
 70
     1
  9
$FILLMODE
 70
     1
  9
$QTEXTMODE
 70
     0
  9
$MIRRTEXT
 70
     0
  9
$LTSCALE
 40
1.0
  9
$ATTMODE
 70
     1
  9
$TEXTSIZE
 40
0.125
  9
$TRACEWID
 40
0.05
  9
$TEXTSTYLE
  7
TXT
  9
$CLAYER
  8
0
  9
$CELTYPE
  6
ByLayer
  9
$CECOLOR
 62
   256
  9
$CELTSCALE
 40
1.0
  9
$DISPSILH
 70
     0
  9
$DIMSCALE
 40
1.0
  9
$DIMASZ
 40
0.18
  9
$DIMEXO
 40
0.063
  9
$DIMDLI
 40
0.281
  9
$DIMRND
 40
0.0
  9
$DIMDLE
 40
0.0
  9
$DIMEXE
 40
0.093
  9
$DIMTP
 40
0.0
  9
$DIMTM
 40
0.0
  9
$DIMTXT
 40
0.125
  9
$DIMCEN
 40
0.09
  9
$DIMTSZ
 40
0.0
  9
$DIMTOL
 70
     0
  9
$DIMLIM
 70
     0
  9
$DIMTIH
 70
     1
  9
$DIMTOH
 70
     1
  9
$DIMSE1
 70
     0
  9
$DIMSE2
 70
     0
  9
$DIMTAD
 70
     0
  9
$DIMZIN
 70
     0
  9
$DIMBLK
  1

  9
$DIMASO
 70
     1
  9
$DIMSHO
 70
     1
  9
$DIMPOST
  1

  9
$DIMAPOST
  1

  9
$DIMALT
 70
     0
  9
$DIMALTD
 70
     2
  9
$DIMALTF
 40
25.4
  9
$DIMLFAC
 40
1.0
  9
$DIMTOFL
 70
     0
  9
$DIMTVP
 40
0.0
  9
$DIMTIX
 70
     0
  9
$DIMSOXD
 70
     0
  9
$DIMSAH
 70
     0
  9
$DIMBLK1
  1

  9
$DIMBLK2
  1

  9
$DIMSTYLE
  2
23NSTD
  9
$DIMCLRD
 70
     0
  9
$DIMCLRE
 70
     0
  9
$DIMCLRT
 70
     0
  9
$DIMTFAC
 40
1.0
  9
$DIMGAP
 40
0.09
  9
$DIMJUST
 70
     0
  9
$DIMSD1
 70
     0
  9
$DIMSD2
 70
     0
  9
$DIMTOLJ
 70
     1
  9
$DIMTZIN
 70
     0
  9
$DIMALTZ
 70
     0
  9
$DIMALTTZ
 70
     0
  9
$DIMUPT
 70
     0
  9
$DIMDEC
 70
     3
  9
$DIMTDEC
 70
     3
  9
$DIMALTU
 70
     2
  9
$DIMALTTD
 70
     2
  9
$DIMTXSTY
  7
TXT
  9
$DIMAUNIT
 70
     0
  9
$DIMADEC
 70
     0
  9
$DIMALTRND
 40
0.0
  9
$DIMAZIN
 70
     0
  9
$DIMDSEP
 70
    46
  9
$DIMATFIT
 70
     1
  9
$DIMFRAC
 70
     0
  9
$DIMLDRBLK
  1

  9
$DIMLUNIT
 70
     2
  9
$DIMLWD
 70
    -2
  9
$DIMLWE
 70
    -2
  9
$DIMTMOVE
 70
     0
  9
$LUNITS
 70
     2
  9
$LUPREC
 70
     3
  9
$SKETCHINC
 40
0.1
  9
$FILLETRAD
 40
0.0
  9
$AUNITS
 70
     0
  9
$AUPREC
 70
     0
  9
$MENU
  1
acad
  9
$ELEVATION
 40
0.0
  9
$PELEVATION
 40
0.0
  9
$THICKNESS
 40
0.0
  9
$LIMCHECK
 70
     0
  9
$CHAMFERA
 40
0.0
  9
$CHAMFERB
 40
0.0
  9
$CHAMFERC
 40
0.0
  9
$CHAMFERD
 40
0.0
  9
$SKPOLY
 70
     0
  9
$TDCREATE
 40
2454847.596298102
  9
$TDUCREATE
 40
2454847.804631435
  9
$TDUPDATE
 40
2454847.616099710
  9
$TDUUPDATE
 40
2454847.824433044
  9
$TDINDWG
 40
0.0012894213
  9
$TDUSRTIMER
 40
0.0012894213
  9
$USRTIMER
 70
     1
  9
$ANGBASE
 50
0.0
  9
$ANGDIR
 70
     0
  9
$PDMODE
 70
     0
  9
$PDSIZE
 40
0.0
  9
$PLINEWID
 40
0.0
  9
$SPLFRAME
 70
     0
  9
$SPLINETYPE
 70
     6
  9
$SPLINESEGS
 70
     8
  9
$HANDSEED
  5
C1F
  9
$SURFTAB1
 70
     6
  9
$SURFTAB2
 70
     6
  9
$SURFTYPE
 70
     6
  9
$SURFU
 70
     6
  9
$SURFV
 70
     6
  9
$UCSBASE
  2

  9
$UCSNAME
  2

  9
$UCSORG
 10
0.0
 20
0.0
 30
0.0
  9
$UCSXDIR
 10
1.0
 20
0.0
 30
0.0
  9
$UCSYDIR
 10
0.0
 20
1.0
 30
0.0
  9
$UCSORTHOREF
  2

  9
$UCSORTHOVIEW
 70
     0
  9
$UCSORGTOP
 10
0.0
 20
0.0
 30
0.0
  9
$UCSORGBOTTOM
 10
0.0
 20
0.0
 30
0.0
  9
$UCSORGLEFT
 10
0.0
 20
0.0
 30
0.0
  9
$UCSORGRIGHT
 10
0.0
 20
0.0
 30
0.0
  9
$UCSORGFRONT
 10
0.0
 20
0.0
 30
0.0
  9
$UCSORGBACK
 10
0.0
 20
0.0
 30
0.0
  9
$PUCSBASE
  2

  9
$PUCSNAME
  2

  9
$PUCSORG
 10
0.0
 20
0.0
 30
0.0
  9
$PUCSXDIR
 10
1.0
 20
0.0
 30
0.0
  9
$PUCSYDIR
 10
0.0
 20
1.0
 30
0.0
  9
$PUCSORTHOREF
  2

  9
$PUCSORTHOVIEW
 70
     0
  9
$PUCSORGTOP
 10
0.0
 20
0.0
 30
0.0
  9
$PUCSORGBOTTOM
 10
0.0
 20
0.0
 30
0.0
  9
$PUCSORGLEFT
 10
0.0
 20
0.0
 30
0.0
  9
$PUCSORGRIGHT
 10
0.0
 20
0.0
 30
0.0
  9
$PUCSORGFRONT
 10
0.0
 20
0.0
 30
0.0
  9
$PUCSORGBACK
 10
0.0
 20
0.0
 30
0.0
  9
$USERI1
 70
     0
  9
$USERI2
 70
     0
  9
$USERI3
 70
     0
  9
$USERI4
 70
     0
  9
$USERI5
 70
     0
  9
$USERR1
 40
0.0
  9
$USERR2
 40
0.0
  9
$USERR3
 40
0.0
  9
$USERR4
 40
0.0
  9
$USERR5
 40
0.0
  9
$WORLDVIEW
 70
     1
  9
$SHADEDGE
 70
     3
  9
$SHADEDIF
 70
    70
  9
$TILEMODE
 70
     1
  9
$MAXACTVP
 70
    16
  9
$PINSBASE
 10
0.0
 20
0.0
 30
0.0
  9
$PLIMCHECK
 70
     0
  9
$PEXTMIN
 10
1.000000000000000E+20
 20
1.000000000000000E+20
 30
1.000000000000000E+20
  9
$PEXTMAX
 10
-1.000000000000000E+20
 20
-1.000000000000000E+20
 30
-1.000000000000000E+20
  9
$PLIMMIN
 10
0.0
 20
0.0
  9
$PLIMMAX
 10
12.0
 20
9.0
  9
$UNITMODE
 70
     0
  9
$VISRETAIN
 70
     0
  9
$PLINEGEN
 70
     0
  9
$PSLTSCALE
 70
     1
  9
$TREEDEPTH
 70
  3020
  9
$CMLSTYLE
  2
Standard
  9
$CMLJUST
 70
     0
  9
$CMLSCALE
 40
1.0
  9
$PROXYGRAPHICS
 70
     1
  9
$MEASUREMENT
 70
     0
  9
$CELWEIGHT
370
    -1
  9
$ENDCAPS
280
     0
  9
$JOINSTYLE
280
     0
  9
$LWDISPLAY
290
     0
  9
$INSUNITS
 70
     0
  9
$HYPERLINKBASE
  1

  9
$STYLESHEET
  1
monochrome.ctb
  9
$XEDIT
290
     1
  9
$CEPSNTYPE
380
     0
  9
$PSTYLEMODE
290
     1
  9
$FINGERPRINTGUID
  2
{5F9F434B-8232-11D3-80AD-00C04F604D1B}
  9
$VERSIONGUID
  2
{33D34EAD-8EE3-4BD8-BDAE-CA571BE14E8E}
  9
$EXTNAMES
290
     1
  9
$PSVPSCALE
 40
0.0
  9
$OLESTARTUP
290
     0
  0
ENDSEC
  0
SECTION
  2
CLASSES
  0
CLASS
  1
ACDBDICTIONARYWDFLT
  2
AcDbDictionaryWithDefault
  3
AutoCAD 2000
 90
        0
280
     0
281
     0
  0
CLASS
  1
ACDBPLACEHOLDER
  2
AcDbPlaceHolder
  3
AutoCAD 2000
 90
        0
280
     0
281
     0
  0
CLASS
  1
LAYOUT
  2
AcDbLayout
  3
AutoCAD 2000
 90
        0
280
     0
281
     0
  0
ENDSEC
  0
SECTION
  2
TABLES
  0
TABLE
  2
VPORT
  5
8
330
0
100
AcDbSymbolTable
 70
     2
  0
VPORT
  5
C1E
330
8
100
AcDbSymbolTableRecord
100
AcDbViewportTableRecord
  2
*Active
 70
     0
 10
0.0
 20
0.0
 11
1.0
 21
1.0
 12
6.800418346479034
 22
1.962002221206923
 13
0.0
 23
0.0
 14
0.125
 24
0.125
 15
0.125
 25
0.125
 16
0.0
 26
0.0
 36
1.0
 17
0.0
 27
0.0
 37
0.0
 40
37.822436358266
 41
1.796327212020033
 42
50.0
 43
0.0
 44
0.0
 50
0.0
 51
0.0
 71
     0
 72
   100
 73
     1
 74
     0
 75
     0
 76
     0
 77
     0
 78
     0
281
     0
 65
     1
110
0.0
120
0.0
130
0.0
111
1.0
121
0.0
131
0.0
112
0.0
122
1.0
132
0.0
 79
     0
146
0.0
  0
ENDTAB
  0
TABLE
  2
LTYPE
  5
5
330
0
100
AcDbSymbolTable
 70
     3
  0
LTYPE
  5
13
330
5
100
AcDbSymbolTableRecord
100
AcDbLinetypeTableRecord
  2
ByBlock
 70
     0
  3

 72
    65
 73
     0
 40
0.0
  0
LTYPE
  5
14
330
5
100
AcDbSymbolTableRecord
100
AcDbLinetypeTableRecord
  2
ByLayer
 70
     0
  3

 72
    65
 73
     0
 40
0.0
  0
LTYPE
  5
15
330
5
100
AcDbSymbolTableRecord
100
AcDbLinetypeTableRecord
  2
CONTINUOUS
 70
     0
  3
Solid line
 72
    65
 73
     0
 40
0.0
  0
LTYPE
  5
22
330
5
100
AcDbSymbolTableRecord
100
AcDbLinetypeTableRecord
  2
HIDDEN
 70
     0
  3
_ _ _ _ _ _ _ _ _ _ _ _ _ _ _ _ _ _ _ _ _ _ _
 72
    65
 73
     2
 40
0.375
 49
0.25
 74
     0
 49
-0.125
 74
     0
  0
LTYPE
  5
23
330
5
100
AcDbSymbolTableRecord
100
AcDbLinetypeTableRecord
  2
PHANTOM
 70
     0
  3
_____ _ _ _____ _ _ _____ _ _ _____ _ _ ____
 72
    65
 73
     6
 40
2.5
 49
1.25
 74
     0
 49
-0.25
 74
     0
 49
0.25
 74
     0
 49
-0.25
 74
     0
 49
0.25
 74
     0
 49
-0.25
 74
     0
  0
ENDTAB
  0
TABLE
  2
LAYER
  5
2
330
0
100
AcDbSymbolTable
 70
     1
  0
LAYER
  5
10
330
2
100
AcDbSymbolTableRecord
100
AcDbLayerTableRecord
  2
0
 70
     0
 62
     7
  6
CONTINUOUS
370
    -3
390
F
  0
ENDTAB
  0
TABLE
  2
STYLE
  5
3
330
0
100
AcDbSymbolTable
 70
     2
  0
STYLE
  5
11
330
3
100
AcDbSymbolTableRecord
100
AcDbTextStyleTableRecord
  2
TXT
 70
     0
 40
0.0
 41
0.75
 50
0.0
 71
     0
 42
0.125
  3
TXT.shx
  4

  0
STYLE
  5
6A
330
3
100
AcDbSymbolTableRecord
100
AcDbTextStyleTableRecord
  2
SLDTEXTSTYLE0
 70
     0
 40
0.0
 41
0.75
 50
0.0
 71
     0
 42
0.2
  3
TXT
  4

  0
ENDTAB
  0
TABLE
  2
VIEW
  5
6
330
0
100
AcDbSymbolTable
 70
     0
  0
ENDTAB
  0
TABLE
  2
UCS
  5
7
330
0
100
AcDbSymbolTable
 70
     0
  0
ENDTAB
  0
TABLE
  2
APPID
  5
9
330
0
100
AcDbSymbolTable
 70
     1
  0
APPID
  5
12
330
9
100
AcDbSymbolTableRecord
100
AcDbRegAppTableRecord
  2
ACAD
 70
     0
  0
ENDTAB
  0
TABLE
  2
DIMSTYLE
  5
A
330
0
100
AcDbSymbolTable
 70
     1
100
AcDbDimStyleTable
 71
     1
340
38
  0
DIMSTYLE
105
38
330
A
100
AcDbSymbolTableRecord
100
AcDbDimStyleTableRecord
  2
23NSTD
 70
     0
 42
0.063
 43
0.281
 44
0.093
140
0.125
271
     3
272
     3
289
     1
340
11
  0
ENDTAB
  0
TABLE
  2
BLOCK_RECORD
  5
1
330
0
100
AcDbSymbolTable
 70
     1
  0
BLOCK_RECORD
  5
1E
330
1
100
AcDbSymbolTableRecord
100
AcDbBlockTableRecord
  2
*Model_Space
340
21
  0
BLOCK_RECORD
  5
1A
330
1
100
AcDbSymbolTableRecord
100
AcDbBlockTableRecord
  2
*Paper_Space
340
1D
  0
BLOCK_RECORD
  5
63
330
1
100
AcDbSymbolTableRecord
100
AcDbBlockTableRecord
  2
SW_NOTE_0
340
0
102
{BLKREFS
331
9A1
102
}
  0
ENDTAB
  0
ENDSEC
  0
SECTION
  2
BLOCKS
  0
BLOCK
  5
33
330
1E
100
AcDbEntity
  8
0
100
AcDbBlockBegin
  2
*Model_Space
 70
     0
 10
0.0
 20
0.0
 30
0.0
  3
*Model_Space
  1

  0
ENDBLK
  5
34
330
1E
100
AcDbEntity
  8
0
100
AcDbBlockEnd
  0
BLOCK
  5
31
330
1A
100
AcDbEntity
 67
     1
  8
0
100
AcDbBlockBegin
  2
*Paper_Space
 70
     0
 10
0.0
 20
0.0
 30
0.0
  3
*Paper_Space
  1

  0
ENDBLK
  5
32
330
1A
100
AcDbEntity
 67
     1
  8
0
100
AcDbBlockEnd
  0
BLOCK
  5
67
330
63
100
AcDbEntity
  8
0
100
AcDbBlockBegin
  2
SW_NOTE_0
 70
     0
 10
0.0
 20
0.0
 30
0.0
  3
SW_NOTE_0
  1

  0
MTEXT
  5
64
330
63
100
AcDbEntity
  8
0
  6
Continuous
 62
     0
370
     0
100
AcDbMText
 10
0.0
 20
0.6445338698859824
 30
0.0
 40
0.5
 41
0.0
 71
     1
 72
     1
  1
SNC-3750
  7
SLDTEXTSTYLE0
 73
     1
 44
1.0
  0
MTEXT
  5
65
330
63
100
AcDbEntity
  8
0
  6
Continuous
 62
     0
370
     0
100
AcDbMText
 10
0.0
 20
-0.6887994473337589
 30
0.0
 40
0.5
 41
0.0
 71
     1
 72
     1
  1
Bud Industries, Inc.  1-13-09
  7
SLDTEXTSTYLE0
 73
     1
 44
1.0
  0
MTEXT
  5
66
330
63
100
AcDbEntity
  8
0
  6
Continuous
 62
     0
370
     0
100
AcDbMText
 10
0.0
 20
-2.0221327645535
 30
0.0
 40
0.5
 41
0.0
 71
     1
 72
     1
  1
Scale 1:1
  7
SLDTEXTSTYLE0
 73
     1
 44
1.0
  0
ENDBLK
  5
68
330
63
100
AcDbEntity
  8
0
100
AcDbBlockEnd
  0
ENDSEC
  0
SECTION
  2
ENTITIES
  0
LINE
  5
645
330
1E
100
AcDbEntity
  8
0
  6
Continuous
100
AcDbLine
 10
1.050235302656373
 20
-0.3059789992505095
 30
0.0
 11
9.016235332077602
 21
-0.3059789992505095
 31
0.0
  0
LINE
  5
646
330
1E
100
AcDbEntity
  8
0
  6
Continuous
100
AcDbLine
 10
9.016235332077602
 20
9.784020813543975
 30
0.0
 11
1.050235302656373
 21
9.784020813543975
 31
0.0
  0
LINE
  5
647
330
1E
100
AcDbEntity
  8
0
  6
Continuous
100
AcDbLine
 10
9.016235332077602
 20
15.01774762408984
 30
0.0
 11
1.050235302656373
 21
15.01774762408984
 31
0.0
  0
LINE
  5
648
330
1E
100
AcDbEntity
  8
0
  6
Continuous
100
AcDbLine
 10
9.016235332077602
 20
14.32774759502906
 30
0.0
 11
1.050235302656373
 21
14.32774759502906
 31
0.0
  0
LINE
  5
649
330
1E
100
AcDbEntity
  8
0
  6
Continuous
100
AcDbLine
 10
2.323235343517939
 20
20.23274748663308
 30
0.0
 11
7.743235291216038
 21
20.23274748663311
 31
0.0
  0
LINE
  5
64A
330
1E
100
AcDbEntity
  8
0
  6
HIDDEN
100
AcDbLine
 10
9.031235345462832
 20
14.63974740411398
 30
0.0
 11
1.035235289271142
 21
14.63974740411398
 31
0.0
  0
LINE
  5
64B
330
1E
100
AcDbEntity
  8
0
  6
HIDDEN
100
AcDbLine
 10
9.031235345462832
 20
14.38974757213337
 30
0.0
 11
1.035235289271142
 21
14.38974757213337
 31
0.0
  0
LINE
  5
64C
330
1E
100
AcDbEntity
  8
0
  6
HIDDEN
100
AcDbLine
 10
1.235318284561973
 20
14.35074759599776
 30
0.0
 11
8.831152350172004
 21
14.35074759599776
 31
0.0
  0
LINE
  5
64D
330
1E
100
AcDbEntity
  8
0
  6
HIDDEN
100
AcDbLine
 10
8.831152350172004
 20
14.41274757310206
 30
0.0
 11
1.235318284561973
 21
14.41274757310206
 31
0.0
  0
LINE
  5
64E
330
1E
100
AcDbEntity
  8
0
  6
HIDDEN
100
AcDbLine
 10
1.175235218646678
 20
20.17074748661238
 30
0.0
 11
8.891235416087297
 21
20.17074748661238
 31
0.0
  0
LINE
  5
64F
330
1E
100
AcDbEntity
  8
0
  6
Continuous
100
AcDbLine
 10
1.428235229302298
 20
-15.17285488518177
 30
0.0
 11
8.638235405431679
 21
-15.17285488518177
 31
0.0
  0
LINE
  5
650
330
1E
100
AcDbEntity
  8
0
  6
Continuous
100
AcDbLine
 10
8.638235405431679
 20
-5.932854853117294
 30
0.0
 11
1.428235229302298
 21
-5.932854853117294
 31
0.0
  0
LINE
  5
651
330
1E
100
AcDbEntity
  8
0
  6
Continuous
100
AcDbLine
 10
8.853235401733371
 20
-15.49785507741849
 30
0.0
 11
1.213235233000602
 21
-15.49785507741849
 31
0.0
  0
LINE
  5
652
330
1E
100
AcDbEntity
  8
0
  6
Continuous
100
AcDbLine
 10
1.213235233000602
 20
-5.60785466088058
 30
0.0
 11
8.853235401733371
 21
-5.60785466088058
 31
0.0
  0
LINE
  5
653
330
1E
100
AcDbEntity
  8
0
  6
HIDDEN
100
AcDbLine
 10
8.861193736464677
 20
-15.43585480698423
 30
0.0
 11
1.205276898269298
 21
-15.43585480698423
 31
0.0
  0
LINE
  5
654
330
1E
100
AcDbEntity
  8
0
  6
HIDDEN
100
AcDbLine
 10
1.205276898269298
 20
-5.669854931314834
 30
0.0
 11
8.861193736464677
 21
-5.669854931314834
 31
0.0
  0
LINE
  5
655
330
1E
100
AcDbEntity
  8
0
  6
Continuous
100
AcDbLine
 10
6.860735285931404
 20
-6.445854900230306
 30
0.0
 11
6.7357353699411
 21
-6.320854984240003
 31
0.0
  0
LINE
  5
656
330
1E
100
AcDbEntity
  8
0
  6
Continuous
100
AcDbLine
 10
6.7357353699411
 20
-14.78485475405906
 30
0.0
 11
6.860735285931404
 21
-14.65985483806876
 31
0.0
  0
LINE
  5
657
330
1E
100
AcDbEntity
  8
0
  6
HIDDEN
100
AcDbLine
 10
6.860735285931404
 20
19.71774747929045
 30
0.0
 11
6.7357353699411
 21
19.71774747929045
 31
0.0
  0
LINE
  5
658
330
1E
100
AcDbEntity
  8
0
  6
HIDDEN
100
AcDbLine
 10
6.7357353699411
 20
19.79574750489418
 30
0.0
 11
6.860735285931404
 21
19.79574750489418
 31
0.0
  0
LINE
  5
659
330
1E
100
AcDbEntity
  8
0
  6
Continuous
100
AcDbLine
 10
0.9732353121668353
 20
9.707021116384378
 30
0.0
 11
0.9732353121668353
 21
-0.228979302090913
 31
0.0
  0
LINE
  5
65A
330
1E
100
AcDbEntity
  8
0
  6
Continuous
100
AcDbLine
 10
-4.208071951276738
 20
9.707021116384378
 30
0.0
 11
-4.208071951276738
 21
-0.2289793020909165
 31
0.0
  0
LINE
  5
65B
330
1E
100
AcDbEntity
  8
0
  6
Continuous
100
AcDbLine
 10
-3.518071922215954
 20
9.707021116384378
 30
0.0
 11
-3.518071922215954
 21
-0.2289793020909165
 31
0.0
  0
LINE
  5
65C
330
1E
100
AcDbEntity
  8
0
  6
Continuous
100
AcDbLine
 10
-9.423071816375655
 20
-0.1289790173027399
 30
0.0
 11
-9.423071816520554
 21
9.607020831596202
 31
0.0
  0
LINE
  5
65D
330
1E
100
AcDbEntity
  8
0
  6
HIDDEN
100
AcDbLine
 10
-8.908071806477348
 20
8.202020848942559
 30
0.0
 11
-8.908071806477348
 21
1.276020965350902
 31
0.0
  0
LINE
  5
65E
330
1E
100
AcDbEntity
  8
0
  6
HIDDEN
100
AcDbLine
 10
-8.986071832081062
 20
8.202020848942559
 30
0.0
 11
-8.986071832081062
 21
1.276020965350902
 31
0.0
  0
LINE
  5
65F
330
1E
100
AcDbEntity
  8
0
  6
HIDDEN
100
AcDbLine
 10
-3.830071731300868
 20
9.722020836439664
 30
0.0
 11
-3.830071731300868
 21
-0.2439790221462026
 31
0.0
  0
LINE
  5
660
330
1E
100
AcDbEntity
  8
0
  6
HIDDEN
100
AcDbLine
 10
-3.580071899320261
 20
9.722020836439664
 30
0.0
 11
-3.580071899320261
 21
-0.2439790221462026
 31
0.0
  0
LINE
  5
661
330
1E
100
AcDbEntity
  8
0
  6
HIDDEN
100
AcDbLine
 10
-3.541071923184647
 20
-0.06889624471739
 30
0.0
 11
-3.541071923184647
 21
9.546938059010848
 31
0.0
  0
LINE
  5
662
330
1E
100
AcDbEntity
  8
0
  6
HIDDEN
100
AcDbLine
 10
-3.603071900288955
 20
9.546938059010848
 30
0.0
 11
-3.603071900288955
 21
-0.06889624471739
 31
0.0
  0
LINE
  5
663
330
1E
100
AcDbEntity
  8
0
  6
HIDDEN
100
AcDbLine
 10
-9.361071813799272
 20
-0.1289790173027399
 30
0.0
 11
-9.361071818382551
 21
9.607020831596202
 31
0.0
  0
LINE
  5
664
330
1E
100
AcDbEntity
  8
0
  6
PHANTOM
100
AcDbLine
 10
6.512652062942549
 20
11.70983019914547
 30
0.0
 11
6.512652062942549
 21
-2.165560239205335
 31
0.0
  0
LINE
  5
665
330
1E
100
AcDbEntity
  8
0
  6
HIDDEN
100
AcDbLine
 10
-3.603071900288955
 20
-0.1439790306879694
 30
0.0
 11
-9.346071814163881
 21
-0.1439790306879694
 31
0.0
  0
LINE
  5
666
330
1E
100
AcDbEntity
  8
0
  6
Continuous
100
AcDbLine
 10
-3.595071619375548
 20
-0.3059789992505095
 30
0.0
 11
-4.208071951276738
 21
-0.3059789992505095
 31
0.0
  0
LINE
  5
667
330
1E
100
AcDbEntity
  8
0
  6
HIDDEN
100
AcDbLine
 10
-3.618071620344242
 20
-0.2059793011222233
 30
0.0
 11
-4.208071951276739
 21
-0.2059793011222233
 31
0.0
  0
LINE
  5
668
330
1E
100
AcDbEntity
  8
0
  6
HIDDEN
100
AcDbLine
 10
-3.830071731300868
 20
-0.2439790221462026
 30
0.0
 11
-3.580071899320261
 21
-0.2439790221462026
 31
0.0
  0
LINE
  5
669
330
1E
100
AcDbEntity
  8
0
  6
HIDDEN
100
AcDbLine
 10
-3.830071731300868
 20
-0.2439790221462026
 30
0.0
 11
-3.580071899320261
 21
-0.2439790221462026
 31
0.0
  0
LINE
  5
66A
330
1E
100
AcDbEntity
  8
0
  6
HIDDEN
100
AcDbLine
 10
-3.83007173130087
 20
0.2560209351449565
 30
0.0
 11
-3.580071899320262
 21
0.2560209351449565
 31
0.0
  0
LINE
  5
66B
330
1E
100
AcDbEntity
  8
0
  6
HIDDEN
100
AcDbLine
 10
-3.83007173130087
 20
0.2560209351449565
 30
0.0
 11
-3.580071899320262
 21
0.2560209351449565
 31
0.0
  0
SPLINE
  5
66C
330
1E
100
AcDbEntity
  8
0
  6
HIDDEN
100
AcDbSpline
210
0.0
220
0.0
230
1.0
 70
    24
 71
     1
 72
     4
 73
     2
 74
     0
 42
0.0000000001
 43
0.0000000001
 40
0.0
 40
0.0
 40
1.0
 40
1.0
 10
-3.448071664198244
 20
0.635020823572571
 30
0.0
 10
-3.823071705499101
 20
0.635020823572571
 30
0.0
  0
SPLINE
  5
66D
330
1E
100
AcDbEntity
  8
0
  6
HIDDEN
100
AcDbSpline
210
0.0
220
0.0
230
1.0
 70
    24
 71
     1
 72
     4
 73
     2
 74
     0
 42
0.0000000001
 43
0.0000000001
 40
0.0
 40
0.0
 40
1.0
 40
1.0
 10
-3.823071705499101
 20
0.4390209811128117
 30
0.0
 10
-3.448071664198244
 20
0.4390209811128117
 30
0.0
  0
LINE
  5
66E
330
1E
100
AcDbEntity
  8
0
  6
Continuous
100
AcDbLine
 10
-4.208071951276739
 20
-0.2059793011222233
 30
0.0
 11
-9.346071814163881
 21
-0.2059793011222233
 31
0.0
  0
SPLINE
  5
66F
330
1E
100
AcDbEntity
  8
0
  6
HIDDEN
100
AcDbSpline
210
0.0
220
0.0
230
1.0
 70
    24
 71
     1
 72
     4
 73
     2
 74
     0
 42
0.0000000001
 43
0.0000000001
 40
0.0
 40
0.0
 40
1.0
 40
1.0
 10
-8.986071832081064
 20
1.136520870201238
 30
0.0
 10
-8.357071781676655
 20
1.136520870201238
 30
0.0
  0
SPLINE
  5
670
330
1E
100
AcDbEntity
  8
0
  6
HIDDEN
100
AcDbSpline
210
0.0
220
0.0
230
1.0
 70
    24
 71
     1
 72
     4
 73
     2
 74
     0
 42
0.0000000001
 43
0.0000000001
 40
0.0
 40
0.0
 40
1.0
 40
1.0
 10
-8.357071781676655
 20
1.451520857961167
 30
0.0
 10
-8.986071832081064
 20
1.451520857961167
 30
0.0
  0
LINE
  5
671
330
1E
100
AcDbEntity
  8
0
  6
Continuous
100
AcDbLine
 10
-9.795071823110795
 20
-0.2995791265157201
 30
0.0
 11
-9.795071823110795
 21
-1.315979118309615
 31
0.0
  0
LINE
  5
672
330
1E
100
AcDbEntity
  8
0
  6
Continuous
100
AcDbLine
 10
-9.873071812048268
 20
-0.2995791265157201
 30
0.0
 11
-9.873071812048268
 21
-1.315979118309615
 31
0.0
  0
LINE
  5
673
330
1E
100
AcDbEntity
  8
0
  6
Continuous
100
AcDbLine
 10
-9.795071823110795
 20
-1.440979327629863
 30
0.0
 11
-9.873071812048268
 21
-1.440979327629863
 31
0.0
  0
SPLINE
  5
674
330
1E
100
AcDbEntity
  8
0
  6
HIDDEN
100
AcDbSpline
210
0.0
220
0.0
230
1.0
 70
    24
 71
     1
 72
     4
 73
     2
 74
     0
 42
0.0000000001
 43
0.0000000001
 40
0.0
 40
0.0
 40
1.0
 40
1.0
 10
-9.873071812048269
 20
-1.139478970587715
 30
0.0
 10
-9.795071823110799
 20
-1.139478970587715
 30
0.0
  0
LINE
  5
675
330
1E
100
AcDbEntity
  8
0
  6
Continuous
100
AcDbLine
 10
-9.873071812048268
 20
-1.440979327629863
 30
0.0
 11
-9.873071812048268
 21
-1.315979118309615
 31
0.0
  0
LINE
  5
676
330
1E
100
AcDbEntity
  8
0
  6
Continuous
100
AcDbLine
 10
-9.795071823110795
 20
-1.315979118309615
 30
0.0
 11
-9.795071823110795
 21
-1.440979327629863
 31
0.0
  0
LINE
  5
677
330
1E
100
AcDbEntity
  8
0
  6
Continuous
100
AcDbLine
 10
-9.501071811924013
 20
0.9190208227803466
 30
0.0
 11
-9.501071811924013
 21
-0.1903788413400669
 31
0.0
  0
LINE
  5
678
330
1E
100
AcDbEntity
  8
0
  6
Continuous
100
AcDbLine
 10
-9.298071815330631
 20
-0.2839792533934506
 30
0.0
 11
-9.516671813378135
 21
-0.2839792533934506
 31
0.0
  0
ARC
  5
679
330
1E
100
AcDbEntity
  8
0
  6
Continuous
100
AcDbCircle
 10
-9.51667181381998
 20
-0.1903790928534548
 30
0.0
 40
0.0936000000000004
100
AcDbArc
 50
270.0000000000008
 51
0.0000000000002036
  0
LINE
  5
67A
330
1E
100
AcDbEntity
  8
0
  6
HIDDEN
100
AcDbLine
 10
-9.424380969139217
 20
-0.2059793011222233
 30
0.0
 11
-9.516671813378135
 21
-0.2059793011222233
 31
0.0
  0
ARC
  5
67B
330
1E
100
AcDbEntity
  8
0
  6
Continuous
100
AcDbCircle
 10
-9.51667181381998
 20
-0.1903790928534548
 30
0.0
 40
0.0155999999999997
100
AcDbArc
 50
270.0000000000008
 51
0.0000000000016284
  0
ARC
  5
67C
330
1E
100
AcDbEntity
  8
0
  6
Continuous
100
AcDbCircle
 10
-9.779471813819981
 20
-0.2995790928534525
 30
0.0
 40
0.0936000000000004
100
AcDbArc
 50
90.0
 51
179.9999999999998
  0
SPLINE
  5
67D
330
1E
100
AcDbEntity
  8
0
  6
HIDDEN
100
AcDbSpline
210
0.0
220
0.0
230
1.0
 70
    24
 71
     1
 72
     4
 73
     2
 74
     0
 42
0.0000000001
 43
0.0000000001
 40
0.0
 40
0.0
 40
1.0
 40
1.0
 10
-9.641571804689442
 20
-0.2059793011222233
 30
0.0
 10
-9.641571804689442
 20
-0.2839792533934506
 30
0.0
  0
SPLINE
  5
67E
330
1E
100
AcDbEntity
  8
0
  6
HIDDEN
100
AcDbSpline
210
0.0
220
0.0
230
1.0
 70
    24
 71
     1
 72
     4
 73
     2
 74
     0
 42
0.0000000001
 43
0.0000000001
 40
0.0
 40
0.0
 40
1.0
 40
1.0
 10
-9.795071823110799
 20
-0.4524791202019465
 30
0.0
 10
-9.873071812048269
 20
-0.4524791202019465
 30
0.0
  0
LINE
  5
67F
330
1E
100
AcDbEntity
  8
0
  6
Continuous
100
AcDbLine
 10
-9.516671813378131
 20
-0.2839792533934506
 30
0.0
 11
-9.779471803323556
 21
-0.2839792533934506
 31
0.0
  0
ARC
  5
680
330
1E
100
AcDbEntity
  8
0
  6
Continuous
100
AcDbCircle
 10
-9.779471813819981
 20
-0.2995790928534525
 30
0.0
 40
0.0155999999999997
100
AcDbArc
 50
90.0
 51
180.0
  0
LINE
  5
681
330
1E
100
AcDbEntity
  8
0
  6
Continuous
100
AcDbLine
 10
-9.516671813378131
 20
-0.2059793011222233
 30
0.0
 11
-9.779471803323556
 21
-0.2059793011222233
 31
0.0
  0
LINE
  5
682
330
1E
100
AcDbEntity
  8
0
  6
Continuous
100
AcDbLine
 10
-9.173071816841281
 20
-0.2059793011222233
 30
0.0
 11
-9.173071816841281
 21
-0.2839792533934506
 31
0.0
  0
LINE
  5
683
330
1E
100
AcDbEntity
  8
0
  6
Continuous
100
AcDbLine
 10
-9.173071816841281
 20
-0.2839792533934506
 30
0.0
 11
-9.298071815330631
 21
-0.2839792533934506
 31
0.0
  0
ARC
  5
684
330
1E
100
AcDbEntity
  8
0
  6
Continuous
100
AcDbCircle
 10
-9.34607181381998
 20
-0.1289790928532675
 30
0.0
 40
0.0770000025556748
100
AcDbArc
 50
179.9999999999989
 51
270.0000000000008
  0
LINE
  5
685
330
1E
100
AcDbEntity
  8
0
  6
Continuous
100
AcDbLine
 10
-9.42307181381998
 20
-0.1289790173027399
 30
0.0
 11
-9.42307181381998
 21
-0.1903788413400669
 31
0.0
  0
LINE
  5
686
330
1E
100
AcDbEntity
  8
0
  6
Continuous
100
AcDbLine
 10
-9.346071814163883
 20
-0.2059793011222233
 30
0.0
 11
-9.424380969139217
 21
-0.2059793011222233
 31
0.0
  0
ARC
  5
687
330
1E
100
AcDbEntity
  8
0
  6
HIDDEN
100
AcDbCircle
 10
-9.346071812469695
 20
-0.1289790928531396
 30
0.0
 40
0.0150000034074399
100
AcDbArc
 50
180.0000000004891
 51
269.9999818263527
  0
LINE
  5
688
330
1E
100
AcDbEntity
  8
0
  6
HIDDEN
100
AcDbLine
 10
-9.423071813819982
 20
0.2160209972276519
 30
0.0
 11
-9.501071811924015
 21
0.2160209972276519
 31
0.0
  0
SPLINE
  5
689
330
1E
100
AcDbEntity
  8
0
  6
HIDDEN
100
AcDbSpline
210
0.0
220
0.0
230
1.0
 70
    24
 71
     1
 72
     4
 73
     2
 74
     0
 42
0.0000000001
 43
0.0000000001
 40
0.0
 40
0.0
 40
1.0
 40
1.0
 10
-9.501071811924015
 20
0.350520990138925
 30
0.0
 10
-9.423071813819982
 20
0.350520990138925
 30
0.0
  0
SPLINE
  5
68A
330
1E
100
AcDbEntity
  8
0
  6
HIDDEN
100
AcDbSpline
210
0.0
220
0.0
230
1.0
 70
    24
 71
     1
 72
     4
 73
     2
 74
     0
 42
0.0000000001
 43
0.0000000001
 40
0.0
 40
0.0
 40
1.0
 40
1.0
 10
-9.423071813819982
 20
0.3720209017701102
 30
0.0
 10
-9.361071813799274
 20
0.3720209017701102
 30
0.0
  0
LINE
  5
68B
330
1E
100
AcDbEntity
  8
0
  6
HIDDEN
100
AcDbLine
 10
-8.908071806477348
 20
1.276020965350902
 30
0.0
 11
-8.908071806477348
 21
1.151021049360597
 31
0.0
  0
LINE
  5
68C
330
1E
100
AcDbEntity
  8
0
  6
HIDDEN
100
AcDbLine
 10
-8.986071832081064
 20
1.151021049360597
 30
0.0
 11
-8.986071832081062
 21
1.276020965350902
 31
0.0
  0
SPLINE
  5
68D
330
1E
100
AcDbEntity
  8
0
  6
HIDDEN
100
AcDbSpline
210
0.0
220
0.0
230
1.0
 70
    24
 71
     1
 72
     4
 73
     2
 74
     0
 42
0.0000000001
 43
0.0000000001
 40
0.0
 40
0.0
 40
1.0
 40
1.0
 10
-9.361071813799275
 20
1.014021005330128
 30
0.0
 10
-8.986071832081064
 20
1.014021005330128
 30
0.0
  0
LINE
  5
68E
330
1E
100
AcDbEntity
  8
0
  6
Continuous
100
AcDbLine
 10
-9.501071811924013
 20
0.9190208227803466
 30
0.0
 11
-9.501071811924013
 21
1.044021032100594
 31
0.0
  0
SPLINE
  5
68F
330
1E
100
AcDbEntity
  8
0
  6
HIDDEN
100
AcDbSpline
210
0.0
220
0.0
230
1.0
 70
    24
 71
     1
 72
     4
 73
     2
 74
     0
 42
0.0000000001
 43
0.0000000001
 40
0.0
 40
0.0
 40
1.0
 40
1.0
 10
-9.423071813819982
 20
0.7875210085440863
 30
0.0
 10
-9.501071811924015
 20
0.7875210085440863
 30
0.0
  0
SPLINE
  5
690
330
1E
100
AcDbEntity
  8
0
  6
HIDDEN
100
AcDbSpline
210
0.0
220
0.0
230
1.0
 70
    24
 71
     1
 72
     4
 73
     2
 74
     0
 42
0.0000000001
 43
0.0000000001
 40
0.0
 40
0.0
 40
1.0
 40
1.0
 10
-9.361071813799274
 20
0.7660208035829577
 30
0.0
 10
-9.423071813819982
 20
0.7660208035829577
 30
0.0
  0
LINE
  5
691
330
1E
100
AcDbEntity
  8
0
  6
Continuous
100
AcDbLine
 10
-9.501071811924013
 20
1.044021032100594
 30
0.0
 11
-9.42307181381998
 21
1.044021032100594
 31
0.0
  0
LINE
  5
692
330
1E
100
AcDbEntity
  8
0
  6
HIDDEN
100
AcDbLine
 10
-8.90807180647735
 20
0.9170208992169683
 30
0.0
 11
-8.90807180647735
 21
1.151021049360597
 31
0.0
  0
LINE
  5
693
330
1E
100
AcDbEntity
  8
0
  6
HIDDEN
100
AcDbLine
 10
-8.986071832081066
 20
0.9170208992169683
 30
0.0
 11
-8.986071832081066
 21
1.014021005330128
 31
0.0
  0
LINE
  5
694
330
1E
100
AcDbEntity
  8
0
  6
HIDDEN
100
AcDbLine
 10
-8.908071806477352
 20
0.6320209382275018
 30
0.0
 11
-8.908071806477352
 21
0.5070210222372005
 31
0.0
  0
LINE
  5
695
330
1E
100
AcDbEntity
  8
0
  6
HIDDEN
100
AcDbLine
 10
-8.986071832081067
 20
0.5070210222372005
 30
0.0
 11
-8.986071832081067
 21
0.6320209382275018
 31
0.0
  0
LINE
  5
696
330
1E
100
AcDbEntity
  8
0
  6
HIDDEN
100
AcDbLine
 10
-8.908071806477352
 20
0.5070210222372005
 30
0.0
 11
-8.986071832081067
 21
0.5070210222372005
 31
0.0
  0
LINE
  5
697
330
1E
100
AcDbEntity
  8
0
  6
HIDDEN
100
AcDbLine
 10
-8.908071806477352
 20
0.6320209382275018
 30
0.0
 11
-8.908071806477352
 21
0.9170208992169683
 31
0.0
  0
LINE
  5
698
330
1E
100
AcDbEntity
  8
0
  6
HIDDEN
100
AcDbLine
 10
-8.986071832081067
 20
0.6320209382275018
 30
0.0
 11
-8.986071832081067
 21
0.9170208992169683
 31
0.0
  0
LINE
  5
699
330
1E
100
AcDbEntity
  8
0
  6
HIDDEN
100
AcDbLine
 10
-8.986071832081067
 20
0.6320209382275018
 30
0.0
 11
-8.908071806477352
 21
0.6320209382275018
 31
0.0
  0
LINE
  5
69A
330
1E
100
AcDbEntity
  8
0
  6
HIDDEN
100
AcDbLine
 10
-8.986071832081066
 20
0.9170208992169683
 30
0.0
 11
-8.90807180647735
 21
0.9170208992169683
 31
0.0
  0
LINE
  5
69B
330
1E
100
AcDbEntity
  8
0
  6
HIDDEN
100
AcDbLine
 10
-8.986071832081064
 20
1.014021005330128
 30
0.0
 11
-8.986071832081064
 21
1.151021049360597
 31
0.0
  0
LINE
  5
69C
330
1E
100
AcDbEntity
  8
0
  6
HIDDEN
100
AcDbLine
 10
-8.908071806477348
 20
1.151021049360597
 30
0.0
 11
-8.986071832081064
 21
1.151021049360597
 31
0.0
  0
SPLINE
  5
69D
330
1E
100
AcDbEntity
  8
0
  6
HIDDEN
100
AcDbSpline
210
0.0
220
0.0
230
1.0
 70
    24
 71
     1
 72
     4
 73
     2
 74
     0
 42
0.0000000001
 43
0.0000000001
 40
0.0
 40
0.0
 40
1.0
 40
1.0
 10
-8.986071832081067
 20
1.122020984371822
 30
0.0
 10
-8.908071806477353
 20
1.122020984371822
 30
0.0
  0
SPLINE
  5
69E
330
1E
100
AcDbEntity
  8
0
  6
HIDDEN
100
AcDbSpline
210
0.0
220
0.0
230
1.0
 70
    24
 71
     1
 72
     4
 73
     2
 74
     0
 42
0.0000000001
 43
0.0000000001
 40
0.0
 40
0.0
 40
1.0
 40
1.0
 10
-8.986071832081071
 20
1.169020948090899
 30
0.0
 10
-8.908071806477357
 20
1.169020948090899
 30
0.0
  0
SPLINE
  5
69F
330
1E
100
AcDbEntity
  8
0
  6
HIDDEN
100
AcDbSpline
210
0.0
220
0.0
230
1.0
 70
    24
 71
     1
 72
     4
 73
     2
 74
     0
 42
0.0000000001
 43
0.0000000001
 40
0.0
 40
0.0
 40
1.0
 40
1.0
 10
-8.986071832081064
 20
1.57402101616222
 30
0.0
 10
-9.361071813799275
 20
1.57402101616222
 30
0.0
  0
LINE
  5
6A0
330
1E
100
AcDbEntity
  8
0
  6
HIDDEN
100
AcDbLine
 10
-8.986071832081062
 20
1.276020965350902
 30
0.0
 11
-8.908071806477348
 21
1.276020965350902
 31
0.0
  0
SPLINE
  5
6A1
330
1E
100
AcDbEntity
  8
0
  6
HIDDEN
100
AcDbSpline
210
0.0
220
0.0
230
1.0
 70
    24
 71
     1
 72
     4
 73
     2
 74
     0
 42
0.0000000001
 43
0.0000000001
 40
0.0
 40
0.0
 40
1.0
 40
1.0
 10
-8.908071806477357
 20
1.419020780071505
 30
0.0
 10
-8.986071832081071
 20
1.419020780071505
 30
0.0
  0
SPLINE
  5
6A2
330
1E
100
AcDbEntity
  8
0
  6
HIDDEN
100
AcDbSpline
210
0.0
220
0.0
230
1.0
 70
    24
 71
     1
 72
     4
 73
     2
 74
     0
 42
0.0000000001
 43
0.0000000001
 40
0.0
 40
0.0
 40
1.0
 40
1.0
 10
-8.90807180647735
 20
1.491020961652598
 30
0.0
 10
-8.986071832081064
 20
1.491020961652598
 30
0.0
  0
SPLINE
  5
6A3
330
1E
100
AcDbEntity
  8
0
  6
HIDDEN
100
AcDbSpline
210
0.0
220
0.0
230
1.0
 70
    24
 71
     1
 72
     4
 73
     2
 74
     0
 42
0.0000000001
 43
0.0000000001
 40
0.0
 40
0.0
 40
1.0
 40
1.0
 10
-8.908071806477353
 20
1.466021037120526
 30
0.0
 10
-8.986071832081067
 20
1.466021037120526
 30
0.0
  0
LINE
  5
6A4
330
1E
100
AcDbEntity
  8
0
  6
HIDDEN
100
AcDbLine
 10
-8.357071781676655
 20
1.136520870201238
 30
0.0
 11
-8.357071781676655
 21
1.451520857961167
 31
0.0
  0
LINE
  5
6A5
330
1E
100
AcDbEntity
  8
0
  6
HIDDEN
100
AcDbLine
 10
-3.791071755165255
 20
0.5680210375598165
 30
0.0
 11
-3.791071755165257
 21
0.0060208098344035
 31
0.0
  0
LINE
  5
6A6
330
1E
100
AcDbEntity
  8
0
  6
HIDDEN
100
AcDbLine
 10
-3.853071732269562
 20
0.5680210375598165
 30
0.0
 11
-3.853071732269564
 21
0.0060208098344035
 31
0.0
  0
LINE
  5
6A7
330
1E
100
AcDbEntity
  8
0
  6
HIDDEN
100
AcDbLine
 10
-4.176103093917043
 20
0.635020823572571
 30
0.0
 11
-4.176103093917043
 21
0.4390209811128117
 31
0.0
  0
LINE
  5
6A8
330
1E
100
AcDbEntity
  8
0
  6
HIDDEN
100
AcDbLine
 10
-4.196103502870612
 20
0.4590208034064887
 30
0.0
 11
-4.196103502870612
 21
0.6150210012788904
 31
0.0
  0
LINE
  5
6A9
330
1E
100
AcDbEntity
  8
0
  6
HIDDEN
100
AcDbLine
 10
-3.823071705499101
 20
0.712020814062111
 30
0.0
 11
-3.823071705499101
 21
0.3620209906232716
 31
0.0
  0
LINE
  5
6AA
330
1E
100
AcDbEntity
  8
0
  6
HIDDEN
100
AcDbLine
 10
-3.848071630031173
 20
0.712020814062111
 30
0.0
 11
-3.848071630031173
 21
0.3620209906232716
 31
0.0
  0
LINE
  5
6AB
330
1E
100
AcDbEntity
  8
0
  6
HIDDEN
100
AcDbLine
 10
-3.854174066201975
 20
0.4390209811128117
 30
0.0
 11
-3.854174066201975
 21
0.6299192291732929
 31
0.0
  0
LINE
  5
6AC
330
1E
100
AcDbEntity
  8
0
  6
HIDDEN
100
AcDbLine
 10
-3.852641710570545
 20
0.6995208517960734
 30
0.0
 11
-3.852641710570545
 21
0.3245208104952191
 31
0.0
  0
LINE
  5
6AD
330
1E
100
AcDbEntity
  8
0
  6
HIDDEN
100
AcDbLine
 10
-3.942631231003926
 20
0.6320209382275018
 30
0.0
 11
-3.942631231003926
 21
0.3920210173937342
 31
0.0
  0
LINE
  5
6AE
330
1E
100
AcDbEntity
  8
0
  6
HIDDEN
100
AcDbLine
 10
-3.941071889017578
 20
-0.0819790535836624
 30
0.0
 11
-4.491071988702826
 21
-0.0819790535836624
 31
0.0
  0
LINE
  5
6AF
330
1E
100
AcDbEntity
  8
0
  6
HIDDEN
100
AcDbLine
 10
-4.591071686831114
 20
-0.1439790306879694
 30
0.0
 11
-4.591071686831114
 21
-0.0819790535836624
 31
0.0
  0
LINE
  5
6B0
330
1E
100
AcDbEntity
  8
0
  6
HIDDEN
100
AcDbLine
 10
-4.591071686831114
 20
-0.0819790535836624
 30
0.0
 11
-4.491071988702826
 21
-0.0819790535836624
 31
0.0
  0
LINE
  5
6B1
330
1E
100
AcDbEntity
  8
0
  6
Continuous
100
AcDbLine
 10
-4.208071951276738
 20
-0.3059789992505095
 30
0.0
 11
-4.208071951276738
 21
-0.2289793020909165
 31
0.0
  0
LINE
  5
6B2
330
1E
100
AcDbEntity
  8
0
  6
HIDDEN
100
AcDbLine
 10
-4.208071951276738
 20
-0.2439790221462026
 30
0.0
 11
-3.830071731300868
 21
-0.2439790221462026
 31
0.0
  0
SPLINE
  5
6B3
330
1E
100
AcDbEntity
  8
0
  6
HIDDEN
100
AcDbSpline
210
0.0
220
0.0
230
1.0
 70
    24
 71
     1
 72
     4
 73
     2
 74
     0
 42
0.0000000001
 43
0.0000000001
 40
0.0
 40
0.0
 40
1.0
 40
1.0
 10
-4.176103093917043
 20
0.4390209811128117
 30
0.0
 10
-3.854174066201975
 20
0.4390209811128117
 30
0.0
  0
SPLINE
  5
6B4
330
1E
100
AcDbEntity
  8
0
  6
HIDDEN
100
AcDbSpline
210
0.0
220
0.0
230
1.0
 70
    24
 71
     1
 72
     4
 73
     2
 74
     0
 42
0.0000000001
 43
0.0000000001
 40
0.0
 40
0.0
 40
1.0
 40
1.0
 10
-4.196103502870612
 20
0.4590208034064887
 30
0.0
 10
-4.176103093917043
 20
0.4390209811128117
 30
0.0
  0
ARC
  5
6B5
330
1E
100
AcDbEntity
  8
0
  6
HIDDEN
100
AcDbCircle
 10
-3.941071813820001
 20
0.0060209071467128
 30
0.0
 40
0.1500000000000003
100
AcDbArc
 50
270.0000000000008
 51
0.0000000000004071
  0
ARC
  5
6B6
330
1E
100
AcDbEntity
  8
0
  6
HIDDEN
100
AcDbCircle
 10
-3.941071813820001
 20
0.0060209071467128
 30
0.0
 40
0.0880000000000003
100
AcDbArc
 50
270.0000000000008
 51
0.0000000000004071
  0
LINE
  5
6B7
330
1E
100
AcDbEntity
  8
0
  6
HIDDEN
100
AcDbLine
 10
-3.853071732269564
 20
0.0060208098344035
 30
0.0
 11
-3.791071755165257
 21
0.0060208098344035
 31
0.0
  0
ARC
  5
6B8
330
1E
100
AcDbEntity
  8
0
  6
HIDDEN
100
AcDbCircle
 10
-3.90057181382
 20
0.324520907146713
 30
0.0
 40
0.1095000000000006
100
AcDbArc
 50
0.0000000000004071
 51
89.99999999999948
  0
SPLINE
  5
6B9
330
1E
100
AcDbEntity
  8
0
  6
HIDDEN
100
AcDbSpline
210
0.0
220
0.0
230
1.0
 70
    24
 71
     1
 72
     4
 73
     2
 74
     0
 42
0.0000000001
 43
0.0000000001
 40
0.0
 40
0.0
 40
1.0
 40
1.0
 10
-3.848071630031173
 20
0.3620209906232716
 30
0.0
 10
-3.823071705499101
 20
0.3620209906232716
 30
0.0
  0
SPLINE
  5
6BA
330
1E
100
AcDbEntity
  8
0
  6
HIDDEN
100
AcDbSpline
210
0.0
220
0.0
230
1.0
 70
    24
 71
     1
 72
     4
 73
     2
 74
     0
 42
0.0000000001
 43
0.0000000001
 40
0.0
 40
0.0
 40
1.0
 40
1.0
 10
-3.848071630031173
 20
0.4199879743170634
 30
0.0
 10
-3.823071705499101
 20
0.4199879743170634
 30
0.0
  0
ARC
  5
6BB
330
1E
100
AcDbEntity
  8
0
  6
HIDDEN
100
AcDbCircle
 10
-3.920141831615077
 20
0.324520907146713
 30
0.0
 40
0.0674999999999997
100
AcDbArc
 50
0.0000000000002036
 51
90.0
  0
SPLINE
  5
6BC
330
1E
100
AcDbEntity
  8
0
  6
HIDDEN
100
AcDbSpline
210
0.0
220
0.0
230
1.0
 70
    24
 71
     1
 72
     4
 73
     2
 74
     0
 42
0.0000000001
 43
0.0000000001
 40
0.0
 40
0.0
 40
1.0
 40
1.0
 10
-3.853071732269564
 20
0.3245208104952191
 30
0.0
 10
-3.852641710570545
 20
0.3245208104952191
 30
0.0
  0
SPLINE
  5
6BD
330
1E
100
AcDbEntity
  8
0
  6
HIDDEN
100
AcDbSpline
210
0.0
220
0.0
230
1.0
 70
    24
 71
     1
 72
     4
 73
     2
 74
     0
 42
0.0000000001
 43
0.0000000001
 40
0.0
 40
0.0
 40
1.0
 40
1.0
 10
-3.942631231003926
 20
0.3920210173937342
 30
0.0
 10
-3.920141624139117
 20
0.3920210173937342
 30
0.0
  0
LINE
  5
6BE
330
1E
100
AcDbEntity
  8
0
  6
HIDDEN
100
AcDbLine
 10
-3.823071705499101
 20
0.465166652409117
 30
0.0
 11
-3.848071630031173
 21
0.465166652409117
 31
0.0
  0
LINE
  5
6BF
330
1E
100
AcDbEntity
  8
0
  6
HIDDEN
100
AcDbLine
 10
-3.823071705499101
 20
0.4824886656370744
 30
0.0
 11
-3.848071630031173
 21
0.4824886656370744
 31
0.0
  0
SPLINE
  5
6C0
330
1E
100
AcDbEntity
  8
0
  6
HIDDEN
100
AcDbSpline
210
0.0
220
0.0
230
1.0
 70
    24
 71
     1
 72
     4
 73
     2
 74
     0
 42
0.0000000001
 43
0.0000000001
 40
0.0
 40
0.0
 40
1.0
 40
1.0
 10
-3.848071630031173
 20
0.4635169647997835
 30
0.0
 10
-3.823071705499101
 20
0.4635169647997835
 30
0.0
  0
SPLINE
  5
6C1
330
1E
100
AcDbEntity
  8
0
  6
HIDDEN
100
AcDbSpline
210
0.0
220
0.0
230
1.0
 70
    24
 71
     1
 72
     4
 73
     2
 74
     0
 42
0.0000000001
 43
0.0000000001
 40
0.0
 40
0.0
 40
1.0
 40
1.0
 10
-3.854174066201975
 20
0.4630051040461752
 30
0.0
 10
-3.823071705499101
 20
0.4630051040461752
 30
0.0
  0
SPLINE
  5
6C2
330
1E
100
AcDbEntity
  8
0
  6
HIDDEN
100
AcDbSpline
210
0.0
220
0.0
230
1.0
 70
    24
 71
     1
 72
     4
 73
     2
 74
     0
 42
0.0000000001
 43
0.0000000001
 40
0.0
 40
0.0
 40
1.0
 40
1.0
 10
-3.942631231003926
 20
0.4340208788744171
 30
0.0
 10
-3.900571823544456
 20
0.4340208788744171
 30
0.0
  0
LINE
  5
6C3
330
1E
100
AcDbEntity
  8
0
  6
HIDDEN
100
AcDbLine
 10
-3.941071889017575
 20
0.7180208780821929
 30
0.0
 11
-4.491071988702824
 21
0.7180208780821929
 31
0.0
  0
LINE
  5
6C4
330
1E
100
AcDbEntity
  8
0
  6
HIDDEN
100
AcDbLine
 10
-3.941071889017575
 20
1.618020801206281
 30
0.0
 11
-4.491071988702824
 21
1.618020801206281
 31
0.0
  0
LINE
  5
6C5
330
1E
100
AcDbEntity
  8
0
  6
HIDDEN
100
AcDbLine
 10
-4.591071686831111
 20
0.8180208695404225
 30
0.0
 11
-4.591071686831111
 21
1.518020809748048
 31
0.0
  0
ARC
  5
6C6
330
1E
100
AcDbEntity
  8
0
  6
HIDDEN
100
AcDbCircle
 10
-4.491071813819998
 20
0.8180209071467068
 30
0.0
 40
0.1
100
AcDbArc
 50
179.9999999999996
 51
270.0000000000002
  0
ARC
  5
6C7
330
1E
100
AcDbEntity
  8
0
  6
HIDDEN
100
AcDbCircle
 10
-4.491071813819996
 20
1.518020907146706
 30
0.0
 40
0.0999999999999997
100
AcDbArc
 50
90.0
 51
180.0
  0
LINE
  5
6C8
330
1E
100
AcDbEntity
  8
0
  6
HIDDEN
100
AcDbLine
 10
-3.791071755165255
 20
1.468020960683904
 30
0.0
 11
-3.791071755165255
 21
0.5680210375598165
 31
0.0
  0
LINE
  5
6C9
330
1E
100
AcDbEntity
  8
0
  6
HIDDEN
100
AcDbLine
 10
-3.853071732269562
 20
1.468020960683904
 30
0.0
 11
-3.853071732269562
 21
0.5680210375598165
 31
0.0
  0
SPLINE
  5
6CA
330
1E
100
AcDbEntity
  8
0
  6
HIDDEN
100
AcDbSpline
210
0.0
220
0.0
230
1.0
 70
    24
 71
     1
 72
     4
 73
     2
 74
     0
 42
0.0000000001
 43
0.0000000001
 40
0.0
 40
0.0
 40
1.0
 40
1.0
 10
-3.854174066201975
 20
0.635020823572571
 30
0.0
 10
-4.176103093917043
 20
0.635020823572571
 30
0.0
  0
SPLINE
  5
6CB
330
1E
100
AcDbEntity
  8
0
  6
HIDDEN
100
AcDbSpline
210
0.0
220
0.0
230
1.0
 70
    24
 71
     1
 72
     4
 73
     2
 74
     0
 42
0.0000000001
 43
0.0000000001
 40
0.0
 40
0.0
 40
1.0
 40
1.0
 10
-4.176103093917043
 20
0.635020823572571
 30
0.0
 10
-4.196103502870612
 20
0.6150210012788904
 30
0.0
  0
ARC
  5
6CC
330
1E
100
AcDbEntity
  8
0
  6
HIDDEN
100
AcDbCircle
 10
-3.941071813819998
 20
0.5680209071467069
 30
0.0
 40
0.1500000000000003
100
AcDbArc
 50
0.0
 51
90.0
  0
ELLIPSE
  5
6CD
330
1E
100
AcDbEntity
  8
0
  6
HIDDEN
100
AcDbEllipse
 10
-3.941071813819998
 20
0.5680209071467069
 30
0.0
 11
0.0000000000000004
 21
0.1499999999999987
 31
0.0
210
0.0
220
0.0
230
1.0
 40
0.5866666666666694
 41
4.712388980384699
 42
6.283185307179586
  0
ARC
  5
6CE
330
1E
100
AcDbEntity
  8
0
  6
HIDDEN
100
AcDbCircle
 10
-3.900571813819999
 20
0.6995209071467095
 30
0.0
 40
0.1095000000000006
100
AcDbArc
 50
270.0000000000008
 51
0.0
  0
LINE
  5
6CF
330
1E
100
AcDbEntity
  8
0
  6
HIDDEN
100
AcDbLine
 10
-3.823071705499101
 20
0.5007757343832964
 30
0.0
 11
-3.848071630031173
 21
0.5007757343832964
 31
0.0
  0
LINE
  5
6D0
330
1E
100
AcDbEntity
  8
0
  6
HIDDEN
100
AcDbLine
 10
-3.823071705499101
 20
0.5732660703020827
 30
0.0
 11
-3.848071630031173
 21
0.5732660703020827
 31
0.0
  0
LINE
  5
6D1
330
1E
100
AcDbEntity
  8
0
  6
HIDDEN
100
AcDbLine
 10
-3.823071705499101
 20
0.5915531390483047
 30
0.0
 11
-3.848071630031173
 21
0.5915531390483047
 31
0.0
  0
LINE
  5
6D2
330
1E
100
AcDbEntity
  8
0
  6
HIDDEN
100
AcDbLine
 10
-3.853071732269562
 20
0.5680210375598165
 30
0.0
 11
-3.791071755165255
 21
0.5680210375598165
 31
0.0
  0
SPLINE
  5
6D3
330
1E
100
AcDbEntity
  8
0
  6
HIDDEN
100
AcDbSpline
210
0.0
220
0.0
230
1.0
 70
    24
 71
     1
 72
     4
 73
     2
 74
     0
 42
0.0000000001
 43
0.0000000001
 40
0.0
 40
0.0
 40
1.0
 40
1.0
 10
-3.900571823544456
 20
0.5900207834168754
 30
0.0
 10
-3.942631231003926
 20
0.5900207834168754
 30
0.0
  0
LINE
  5
6D4
330
1E
100
AcDbEntity
  8
0
  6
HIDDEN
100
AcDbLine
 10
-3.823071705499101
 20
0.6088751522762621
 30
0.0
 11
-3.848071630031173
 21
0.6088751522762621
 31
0.0
  0
SPLINE
  5
6D5
330
1E
100
AcDbEntity
  8
0
  6
HIDDEN
100
AcDbSpline
210
0.0
220
0.0
230
1.0
 70
    24
 71
     1
 72
     4
 73
     2
 74
     0
 42
0.0000000001
 43
0.0000000001
 40
0.0
 40
0.0
 40
1.0
 40
1.0
 10
-3.823071705499101
 20
0.712020814062111
 30
0.0
 10
-3.848071630031173
 20
0.712020814062111
 30
0.0
  0
SPLINE
  5
6D6
330
1E
100
AcDbEntity
  8
0
  6
HIDDEN
100
AcDbSpline
210
0.0
220
0.0
230
1.0
 70
    24
 71
     1
 72
     4
 73
     2
 74
     0
 42
0.0000000001
 43
0.0000000001
 40
0.0
 40
0.0
 40
1.0
 40
1.0
 10
-3.823071705499101
 20
0.6540538303683192
 30
0.0
 10
-3.848071630031173
 20
0.6540538303683192
 30
0.0
  0
SPLINE
  5
6D7
330
1E
100
AcDbEntity
  8
0
  6
HIDDEN
100
AcDbSpline
210
0.0
220
0.0
230
1.0
 70
    24
 71
     1
 72
     4
 73
     2
 74
     0
 42
0.0000000001
 43
0.0000000001
 40
0.0
 40
0.0
 40
1.0
 40
1.0
 10
-3.823071705499101
 20
0.6105248398855992
 30
0.0
 10
-3.848071630031173
 20
0.6105248398855992
 30
0.0
  0
SPLINE
  5
6D8
330
1E
100
AcDbEntity
  8
0
  6
HIDDEN
100
AcDbSpline
210
0.0
220
0.0
230
1.0
 70
    24
 71
     1
 72
     4
 73
     2
 74
     0
 42
0.0000000001
 43
0.0000000001
 40
0.0
 40
0.0
 40
1.0
 40
1.0
 10
-3.823071705499101
 20
0.6110367006392075
 30
0.0
 10
-3.854174066201975
 20
0.6110367006392075
 30
0.0
  0
ARC
  5
6D9
330
1E
100
AcDbEntity
  8
0
  6
HIDDEN
100
AcDbCircle
 10
-3.920141831615076
 20
0.699520907146713
 30
0.0
 40
0.0675000000000003
100
AcDbArc
 50
270.0000000000008
 51
0.0000000000002036
  0
LINE
  5
6DA
330
1E
100
AcDbEntity
  8
0
  6
HIDDEN
100
AcDbLine
 10
-3.854174066201975
 20
0.6299192291732929
 30
0.0
 11
-3.854174066201975
 21
0.635020823572571
 31
0.0
  0
SPLINE
  5
6DB
330
1E
100
AcDbEntity
  8
0
  6
HIDDEN
100
AcDbSpline
210
0.0
220
0.0
230
1.0
 70
    24
 71
     1
 72
     4
 73
     2
 74
     0
 42
0.0000000001
 43
0.0000000001
 40
0.0
 40
0.0
 40
1.0
 40
1.0
 10
-3.852641710570545
 20
0.6995208517960734
 30
0.0
 10
-3.853071732269564
 20
0.6995208517960734
 30
0.0
  0
SPLINE
  5
6DC
330
1E
100
AcDbEntity
  8
0
  6
HIDDEN
100
AcDbSpline
210
0.0
220
0.0
230
1.0
 70
    24
 71
     1
 72
     4
 73
     2
 74
     0
 42
0.0000000001
 43
0.0000000001
 40
0.0
 40
0.0
 40
1.0
 40
1.0
 10
-3.920141624139117
 20
0.6320209382275018
 30
0.0
 10
-3.942631231003926
 20
0.6320209382275018
 30
0.0
  0
ARC
  5
6DD
330
1E
100
AcDbEntity
  8
0
  6
HIDDEN
100
AcDbCircle
 10
-3.941071813819995
 20
1.468020907146705
 30
0.0
 40
0.1499999999999999
100
AcDbArc
 50
0.0000000000006107
 51
90.0
  0
ELLIPSE
  5
6DE
330
1E
100
AcDbEntity
  8
0
  6
HIDDEN
100
AcDbEllipse
 10
-3.941071813819995
 20
1.468020907146705
 30
0.0
 11
0.0000000000000004
 21
0.1499999999999992
 31
0.0
210
0.0
220
0.0
230
1.0
 40
0.5866666666666673
 41
4.712388980384695
 42
6.283185307179586
  0
LINE
  5
6DF
330
1E
100
AcDbEntity
  8
0
  6
HIDDEN
100
AcDbLine
 10
-3.853071732269562
 20
1.468020960683904
 30
0.0
 11
-3.791071755165255
 21
1.468020960683904
 31
0.0
  0
LINE
  5
6E0
330
1E
100
AcDbEntity
  8
0
  6
Continuous
100
AcDbLine
 10
1.428235229302298
 20
-5.932854853117294
 30
0.0
 11
1.428235229302298
 21
-15.17285488518177
 31
0.0
  0
LINE
  5
6E1
330
1E
100
AcDbEntity
  8
0
  6
Continuous
100
AcDbLine
 10
1.098235228157138
 20
-15.38285477924508
 30
0.0
 11
1.098235228157138
 21
-5.722854959053989
 31
0.0
  0
LINE
  5
6E2
330
1E
100
AcDbEntity
  8
0
  6
HIDDEN
100
AcDbLine
 10
1.160235205261445
 20
-15.39081340730633
 30
0.0
 11
1.160235205261445
 21
-5.71489633099274
 31
0.0
  0
LINE
  5
6E3
330
1E
100
AcDbEntity
  8
0
  6
Continuous
100
AcDbLine
 10
2.080735371564975
 20
-7.089854927353705
 30
0.0
 11
2.080735371564975
 21
-14.01585481094536
 31
0.0
  0
LINE
  5
6E4
330
1E
100
AcDbEntity
  8
0
  6
Continuous
100
AcDbLine
 10
1.448235344925922
 20
-16.73285510392613
 30
0.0
 11
2.198235427527635
 21
-16.73285510392613
 31
0.0
  0
LINE
  5
6E5
330
1E
100
AcDbEntity
  8
0
  6
Continuous
100
AcDbLine
 10
2.659235262018208
 20
-15.17285488518177
 30
0.0
 11
1.428235229302298
 21
-13.94185499913084
 31
0.0
  0
LINE
  5
6E6
330
1E
100
AcDbEntity
  8
0
  6
HIDDEN
100
AcDbLine
 10
1.448235344925922
 20
-14.24785474419567
 30
0.0
 11
2.198235427527635
 21
-14.24785474419567
 31
0.0
  0
LINE
  5
6E7
330
1E
100
AcDbEntity
  8
0
  6
Continuous
100
AcDbLine
 10
1.428235229302298
 20
-14.84185492225492
 30
0.0
 11
1.759235192229148
 21
-15.17285488518177
 31
0.0
  0
LINE
  5
6E8
330
1E
100
AcDbEntity
  8
0
  6
Continuous
100
AcDbLine
 10
1.69823517690653
 20
-15.57585502968971
 30
0.0
 11
1.573235260916227
 21
-15.57585502968971
 31
0.0
  0
ARC
  5
6E9
330
1E
100
AcDbEntity
  8
0
  6
HIDDEN
100
AcDbCircle
 10
1.698235317366991
 20
-15.20085486914972
 30
0.0
 40
0.125
100
AcDbArc
 50
90.0
 51
180.0
  0
LINE
  5
6EA
330
1E
100
AcDbEntity
  8
0
  6
Continuous
100
AcDbLine
 10
1.323235428935619
 20
-15.57585502968971
 30
0.0
 11
1.323235428935619
 21
-15.59145490281198
 31
0.0
  0
LINE
  5
6EB
330
1E
100
AcDbEntity
  8
0
  6
Continuous
100
AcDbLine
 10
1.323235428935619
 20
-15.59145490281198
 30
0.0
 11
1.323235428935619
 21
-16.60785489460588
 31
0.0
  0
ARC
  5
6EC
330
1E
100
AcDbEntity
  8
0
  6
Continuous
100
AcDbCircle
 10
1.448235317366991
 20
-16.60785486914972
 30
0.0
 40
0.125
100
AcDbArc
 50
180.0000000000024
 51
270.0000000000008
  0
LINE
  5
6ED
330
1E
100
AcDbEntity
  8
0
  6
HIDDEN
100
AcDbLine
 10
1.222235182365754
 20
-14.57385489821407
 30
0.0
 11
1.222235182365754
 21
-13.67385497508998
 31
0.0
  0
LINE
  5
6EE
330
1E
100
AcDbEntity
  8
0
  6
HIDDEN
100
AcDbLine
 10
1.323235428935619
 20
-14.37285495351592
 30
0.0
 11
1.323235428935619
 21
-15.48225461763633
 31
0.0
  0
LINE
  5
6EF
330
1E
100
AcDbEntity
  8
0
  6
Continuous
100
AcDbLine
 10
1.213235233000602
 20
-15.49785507741849
 30
0.0
 11
1.175235218646678
 21
-15.49785507741849
 31
0.0
  0
SPLINE
  5
6F0
330
1E
100
AcDbEntity
  8
0
  6
HIDDEN
100
AcDbSpline
210
0.0
220
0.0
230
1.0
 70
     8
 71
     3
 72
    10
 73
     6
 74
     0
 42
0.0000000001
 43
0.0000000001
 40
0.0
 40
0.0
 40
0.0
 40
0.0
 40
0.5
 40
0.5
 40
1.0
 40
1.0
 40
1.0
 40
1.0
 10
1.175235317366992
 20
-15.43585487321299
 30
0.0
 10
1.185249143950308
 20
-15.43585487321299
 30
0.0
 10
1.195262970533626
 20
-15.43423827632921
 30
0.0
 10
1.215290623700262
 20
-15.42868467115205
 30
0.0
 10
1.225304450283578
 20
-15.42478186103033
 30
0.0
 10
1.235318276866896
 20
-15.42085486914953
 30
0.0
  0
LINE
  5
6F1
330
1E
100
AcDbEntity
  8
0
  6
HIDDEN
100
AcDbLine
 10
1.160235205261445
 20
-15.43585480698423
 30
0.0
 11
1.205276898269298
 21
-15.43585480698423
 31
0.0
  0
ARC
  5
6F2
330
1E
100
AcDbEntity
  8
0
  6
Continuous
100
AcDbCircle
 10
1.17523531736697
 20
-15.42085486914953
 30
0.0
 40
0.0770000000000017
100
AcDbArc
 50
180.0
 51
270.0000000000008
  0
LINE
  5
6F3
330
1E
100
AcDbEntity
  8
0
  6
Continuous
100
AcDbLine
 10
1.098235228157138
 20
-15.420854793599
 30
0.0
 11
1.098235228157138
 21
-15.38285477924508
 31
0.0
  0
SPLINE
  5
6F4
330
1E
100
AcDbEntity
  8
0
  6
HIDDEN
100
AcDbSpline
210
0.0
220
0.0
230
1.0
 70
     8
 71
     3
 72
    10
 73
     6
 74
     0
 42
0.0000000001
 43
0.0000000001
 40
0.0
 40
0.0
 40
0.0
 40
0.0
 40
0.5
 40
0.5
 40
1.0
 40
1.0
 40
1.0
 40
1.0
 10
1.17523531736697
 20
-15.36077190964963
 30
0.0
 10
1.171308325486171
 20
-15.37078573623294
 30
0.0
 10
1.167405515364448
 20
-15.38079956281626
 30
0.0
 10
1.161851910187294
 20
-15.4008272159829
 30
0.0
 10
1.160235313303509
 20
-15.41084104256621
 30
0.0
 10
1.160235313303509
 20
-15.42085486914953
 30
0.0
  0
SPLINE
  5
6F5
330
1E
100
AcDbEntity
  8
0
  6
HIDDEN
100
AcDbSpline
210
0.0
220
0.0
230
1.0
 70
     8
 71
     3
 72
    10
 73
     6
 74
     0
 42
0.0000000001
 43
0.0000000001
 40
0.0
 40
0.0
 40
0.0
 40
0.0
 40
0.5
 40
0.5
 40
1.0
 40
1.0
 40
1.0
 40
1.0
 10
1.17523531736697
 20
-15.36077190964963
 30
0.0
 10
1.17318151923224
 20
-15.36600909347445
 30
0.0
 10
1.171136538286184
 20
-15.37125009885104
 30
0.0
 10
1.166392922056749
 20
-15.38144880230767
 30
0.0
 10
1.163684433538616
 20
-15.38641576747081
 30
0.0
 10
1.160235313303552
 20
-15.39081339458042
 30
0.0
  0
LINE
  5
6F6
330
1E
100
AcDbEntity
  8
0
  6
HIDDEN
100
AcDbLine
 10
1.160235205261445
 20
-15.39081340730633
 30
0.0
 11
1.160235205261445
 21
-15.43585480698423
 31
0.0
  0
LWPOLYLINE
  5
6F7
330
1E
100
AcDbEntity
  8
0
  6
HIDDEN
100
AcDbPolyline
 90
        9
 70
   128
 43
0.0
 10
1.160235205261445
 20
-15.43585480698423
 10
1.160523548597145
 20
-15.43556675697848
 10
1.1613771387364
 20
-15.43471316683922
 10
1.162763416055339
 20
-15.43332688952029
 10
1.164628701174073
 20
-15.43146160440155
 10
1.166901714916024
 20
-15.42918829732966
 10
1.169495044957654
 20
-15.42659526061797
 10
1.172308959117744
 20
-15.42378134645788
 10
1.175235218646678
 20
-15.420854793599
  0
SPLINE
  5
6F8
330
1E
100
AcDbEntity
  8
0
  6
HIDDEN
100
AcDbSpline
210
0.0
220
0.0
230
1.0
 70
     8
 71
     3
 72
    10
 73
     6
 74
     0
 42
0.0000000001
 43
0.0000000001
 40
0.0
 40
0.0
 40
0.0
 40
0.0
 40
0.5
 40
0.5
 40
1.0
 40
1.0
 40
1.0
 40
1.0
 10
1.20527679271256
 20
-15.43585487260394
 30
0.0
 10
1.20969677094132
 20
-15.43238822221521
 30
0.0
 10
1.214658678064154
 20
-15.4296886163706
 30
0.0
 10
1.224845484558876
 20
-15.4249517437569
 30
0.0
 10
1.230086585343764
 20
-15.42290651343988
 30
0.0
 10
1.235318276866896
 20
-15.42085486914953
 30
0.0
  0
LINE
  5
6F9
330
1E
100
AcDbEntity
  8
0
  6
HIDDEN
100
AcDbLine
 10
1.573235260916227
 20
-15.20085498838886
 30
0.0
 11
1.573235260916227
 21
-15.48225461763633
 31
0.0
  0
LINE
  5
6FA
330
1E
100
AcDbEntity
  8
0
  6
Continuous
100
AcDbLine
 10
1.323235428935619
 20
-15.57585502968971
 30
0.0
 11
1.573235260916227
 21
-15.57585502968971
 31
0.0
  0
LINE
  5
6FB
330
1E
100
AcDbEntity
  8
0
  6
Continuous
100
AcDbLine
 10
1.323235428935619
 20
-15.49785507741849
 30
0.0
 11
1.323235428935619
 21
-15.57585502968971
 31
0.0
  0
LINE
  5
6FC
330
1E
100
AcDbEntity
  8
0
  6
HIDDEN
100
AcDbLine
 10
1.323235428935619
 20
-15.48225461763633
 30
0.0
 11
1.323235428935619
 21
-15.49785507741849
 31
0.0
  0
LINE
  5
6FD
330
1E
100
AcDbEntity
  8
0
  6
Continuous
100
AcDbLine
 10
1.573235260916227
 20
-15.49785507741849
 30
0.0
 11
1.573235260916227
 21
-15.57585502968971
 31
0.0
  0
LINE
  5
6FE
330
1E
100
AcDbEntity
  8
0
  6
HIDDEN
100
AcDbLine
 10
1.573235260916227
 20
-15.48225461763633
 30
0.0
 11
1.573235260916227
 21
-15.49785507741849
 31
0.0
  0
LWPOLYLINE
  5
6FF
330
1E
100
AcDbEntity
  8
0
  6
HIDDEN
100
AcDbPolyline
 90
        9
 70
   128
 43
0.0
 10
1.160235205261445
 20
-14.57385489821407
 10
1.163117465298665
 20
-14.57673715825129
 10
1.171653366691204
 20
-14.58527305964383
 10
1.18551496656082
 20
-14.5991343661835
 10
1.204169284397881
 20
-14.61778897735051
 10
1.226899715147339
 20
-14.64051940809996
 10
1.252832722233694
 20
-14.66645241518632
 10
1.280971863834595
 20
-14.69459126345728
 10
1.310235339113766
 20
-14.72385473873645
  0
LWPOLYLINE
  5
700
330
1E
100
AcDbEntity
  8
0
  6
HIDDEN
100
AcDbPolyline
 90
        9
 70
   128
 43
0.0
 10
1.222235182365754
 20
-14.57385489821407
 10
1.223926229497298
 20
-14.57673715825129
 10
1.228933958314254
 20
-14.58527305964383
 10
1.237065944372858
 20
-14.5991343661835
 10
1.248009791281937
 20
-14.61778897735051
 10
1.261345157230651
 20
-14.64051940809996
 10
1.276559301475559
 20
-14.66645241518632
 10
1.293067324106807
 20
-14.69459126345728
 10
1.310235339113766
 20
-14.72385473873645
  0
LINE
  5
701
330
1E
100
AcDbEntity
  8
0
  6
HIDDEN
100
AcDbLine
 10
1.222235182365754
 20
-14.57385489821407
 30
0.0
 11
1.160235205261445
 21
-14.57385489821407
 31
0.0
  0
ARC
  5
702
330
1E
100
AcDbEntity
  8
0
  6
HIDDEN
100
AcDbCircle
 10
1.448235317366991
 20
-14.37285486914972
 30
0.0
 40
0.125
100
AcDbArc
 50
90.0
 51
180.0
  0
LINE
  5
703
330
1E
100
AcDbEntity
  8
0
  6
HIDDEN
100
AcDbLine
 10
1.310235339113766
 20
-14.72385473873645
 30
0.0
 11
1.428235229302298
 21
-14.84185492225492
 31
0.0
  0
LWPOLYLINE
  5
704
330
1E
100
AcDbEntity
  8
0
  6
HIDDEN
100
AcDbPolyline
 90
        9
 70
   128
 43
0.0
 10
1.310235339113766
 20
-13.82385481561236
 10
1.280971863834595
 20
-13.79459134033319
 10
1.252832722233694
 20
-13.76645249206223
 10
1.226899715147339
 20
-13.74051919164593
 10
1.204169284397881
 20
-13.71778876089647
 10
1.18551496656082
 20
-13.69913444305941
 10
1.171653366691204
 20
-13.6852728431898
 10
1.163117465298665
 20
-13.67673694179726
 10
1.160235205261445
 20
-13.67385497508998
  0
LWPOLYLINE
  5
705
330
1E
100
AcDbEntity
  8
0
  6
HIDDEN
100
AcDbPolyline
 90
       10
 70
   128
 43
0.0
 10
1.310235339113766
 20
-13.82385481561236
 10
1.294954315641453
 20
-13.79780770317749
 10
1.280137633471696
 20
-13.77255170160364
 10
1.26623526073976
 20
-13.7488547486862
 10
1.253669885896041
 20
-13.7274366761096
 10
1.242823424528623
 20
-13.70894808969133
 10
1.234024992835523
 20
-13.69395100960554
 10
1.227542401056309
 20
-13.68290097725646
 10
1.223572180253972
 20
-13.67613356210088
 10
1.222235182365754
 20
-13.67385497508998
  0
LINE
  5
706
330
1E
100
AcDbEntity
  8
0
  6
HIDDEN
100
AcDbLine
 10
1.222235182365754
 20
-13.67385497508998
 30
0.0
 11
1.160235205261445
 21
-13.67385497508998
 31
0.0
  0
LINE
  5
707
330
1E
100
AcDbEntity
  8
0
  6
HIDDEN
100
AcDbLine
 10
1.428235229302298
 20
-13.94185499913084
 30
0.0
 11
1.310235339113766
 21
-13.82385481561236
 31
0.0
  0
LINE
  5
708
330
1E
100
AcDbEntity
  8
0
  6
Continuous
100
AcDbLine
 10
2.323235343517939
 20
-15.57585502968971
 30
0.0
 11
2.323235343517939
 21
-15.59145490281198
 31
0.0
  0
ARC
  5
709
330
1E
100
AcDbEntity
  8
0
  6
Continuous
100
AcDbCircle
 10
2.198235317366991
 20
-16.60785486914972
 30
0.0
 40
0.125
100
AcDbArc
 50
270.0000000000008
 51
0.0
  0
ARC
  5
70A
330
1E
100
AcDbEntity
  8
0
  6
Continuous
100
AcDbCircle
 10
1.823235317366991
 20
-16.21285486914971
 30
0.0
 40
0.2185000000000004
100
AcDbArc
 50
180.0
 51
0.0
  0
ARC
  5
70B
330
1E
100
AcDbEntity
  8
0
  6
Continuous
100
AcDbCircle
 10
1.823235317366991
 20
-15.96285486914972
 30
0.0
 40
0.2185000000000006
100
AcDbArc
 50
0.0
 51
180.0
  0
LINE
  5
70C
330
1E
100
AcDbEntity
  8
0
  6
Continuous
100
AcDbLine
 10
1.604735377024198
 20
-15.96285461237084
 30
0.0
 11
1.604735377024198
 21
-16.21285503101134
 31
0.0
  0
LINE
  5
70D
330
1E
100
AcDbEntity
  8
0
  6
Continuous
100
AcDbLine
 10
2.041735395429361
 20
-16.21285503101134
 30
0.0
 11
2.041735395429361
 21
-15.96285461237084
 31
0.0
  0
LINE
  5
70E
330
1E
100
AcDbEntity
  8
0
  6
Continuous
100
AcDbLine
 10
2.323235343517939
 20
-15.59145490281198
 30
0.0
 11
2.323235343517939
 21
-16.60785489460588
 31
0.0
  0
LINE
  5
70F
330
1E
100
AcDbEntity
  8
0
  6
Continuous
100
AcDbLine
 10
3.330735264792874
 20
-14.78485475405906
 30
0.0
 11
6.7357353699411
 21
-14.78485475405906
 31
0.0
  0
LINE
  5
710
330
1E
100
AcDbEntity
  8
0
  6
HIDDEN
100
AcDbLine
 10
2.922235330485641
 20
-15.37385482987993
 30
0.0
 11
2.022235407361554
 21
-15.37385482987993
 31
0.0
  0
LINE
  5
711
330
1E
100
AcDbEntity
  8
0
  6
Continuous
100
AcDbLine
 10
3.205735348802571
 20
-14.3748548770793
 30
0.0
 11
2.769735292179097
 21
-14.3748548770793
 31
0.0
  0
LWPOLYLINE
  5
712
330
1E
100
AcDbEntity
  8
0
  6
HIDDEN
100
AcDbPolyline
 90
       10
 70
   128
 43
0.0
 10
2.922235330485641
 20
-15.43585480698423
 10
2.919956450144795
 20
-15.43357592664339
 10
2.913189181654193
 20
-15.42680880481776
 10
2.902139149305108
 20
-15.41575877246867
 10
2.887141922554352
 20
-15.40076139905294
 10
2.868653482801052
 20
-15.38227310596462
 10
2.847235263559481
 20
-15.36085474005807
 10
2.823538310642037
 20
-15.33715778714063
 10
2.798282602398135
 20
-15.31190207889673
 10
2.772235343298294
 20
-15.28585496646186
  0
LWPOLYLINE
  5
713
330
1E
100
AcDbEntity
  8
0
  6
HIDDEN
100
AcDbPolyline
 90
       10
 70
   128
 43
0.0
 10
2.922235330485641
 20
-15.37385482987993
 10
2.919956450144795
 20
-15.37251783199171
 10
2.913189181654193
 20
-15.36854790451932
 10
2.902139149305108
 20
-15.36206501941016
 10
2.887141922554352
 20
-15.353266881047
 10
2.868653482801052
 20
-15.34242012634964
 10
2.847235263559481
 20
-15.32985475150592
 10
2.823538310642037
 20
-15.31595267210393
 10
2.798282602398135
 20
-15.30113598993417
 10
2.772235343298294
 20
-15.28585496646186
  0
ARC
  5
714
330
1E
100
AcDbEntity
  8
0
  6
HIDDEN
100
AcDbCircle
 10
2.574235317366968
 20
-13.99785486914937
 30
0.0
 40
0.28
100
AcDbArc
 50
314.2839108917082
 51
90.0
  0
LINE
  5
715
330
1E
100
AcDbEntity
  8
0
  6
Continuous
100
AcDbLine
 10
2.769735292179097
 20
-14.3748548770793
 30
0.0
 11
2.769735292179097
 21
-13.99785491221506
 31
0.0
  0
ARC
  5
716
330
1E
100
AcDbEntity
  8
0
  6
HIDDEN
100
AcDbCircle
 10
2.574235317366968
 20
-13.99785486914937
 30
0.0
 40
0.2799999999999998
100
AcDbArc
 50
90.0
 51
210.7114196744046
  0
CIRCLE
  5
717
330
1E
100
AcDbEntity
  8
0
  6
Continuous
100
AcDbCircle
 10
2.574235317366968
 20
-13.99785486914937
 30
0.0
 40
0.1575000000000006
  0
LINE
  5
718
330
1E
100
AcDbEntity
  8
0
  6
Continuous
100
AcDbLine
 10
2.375735243701278
 20
-13.99785491221506
 30
0.0
 11
2.375735243701278
 21
-14.14085472693566
 31
0.0
  0
LINE
  5
719
330
1E
100
AcDbEntity
  8
0
  6
Continuous
100
AcDbLine
 10
2.080735371564975
 20
-14.01585481094536
 30
0.0
 11
2.205735287555279
 21
-14.14085472693566
 31
0.0
  0
ARC
  5
71A
330
1E
100
AcDbEntity
  8
0
  6
HIDDEN
100
AcDbCircle
 10
2.198235317366991
 20
-14.37285486914972
 30
0.0
 40
0.125
100
AcDbArc
 50
0.0
 51
90.0
  0
LINE
  5
71B
330
1E
100
AcDbEntity
  8
0
  6
Continuous
100
AcDbLine
 10
2.073235218207386
 20
-15.57585502968971
 30
0.0
 11
2.323235343517939
 21
-15.57585502968971
 31
0.0
  0
LINE
  5
71C
330
1E
100
AcDbEntity
  8
0
  6
Continuous
100
AcDbLine
 10
2.375735243701278
 20
-14.14085472693566
 30
0.0
 11
2.205735287555279
 21
-14.14085472693566
 31
0.0
  0
CIRCLE
  5
71D
330
1E
100
AcDbEntity
  8
0
  6
HIDDEN
100
AcDbCircle
 10
1.823235317366991
 20
-14.72285486914971
 30
0.0
 40
0.2184999999999999
  0
CIRCLE
  5
71E
330
1E
100
AcDbEntity
  8
0
  6
HIDDEN
100
AcDbCircle
 10
1.81623531736697
 20
-14.77985486914955
 30
0.0
 40
0.1875
  0
CIRCLE
  5
71F
330
1E
100
AcDbEntity
  8
0
  6
HIDDEN
100
AcDbCircle
 10
1.823235317366989
 20
-14.72285486914972
 30
0.0
 40
0.1970000000000009
  0
CIRCLE
  5
720
330
1E
100
AcDbEntity
  8
0
  6
HIDDEN
100
AcDbCircle
 10
1.81623531736697
 20
-14.77985486914955
 30
0.0
 40
0.1200000000000003
  0
CIRCLE
  5
721
330
1E
100
AcDbEntity
  8
0
  6
Continuous
100
AcDbCircle
 10
1.81623531736697
 20
-14.77985486914955
 30
0.0
 40
0.0780000000000001
  0
LWPOLYLINE
  5
722
330
1E
100
AcDbEntity
  8
0
  6
HIDDEN
100
AcDbPolyline
 90
       10
 70
   128
 43
0.0
 10
1.872235273509232
 20
-15.28585496646186
 10
1.898282679274046
 20
-15.31190207889673
 10
1.923538387517949
 20
-15.33715778714063
 10
1.947235340435394
 20
-15.36085474005807
 10
1.968653413011992
 20
-15.38227310596462
 10
1.987141999430264
 20
-15.40076139905294
 10
2.002139079516048
 20
-15.41575877246867
 10
2.013189111865131
 20
-15.42680880481776
 10
2.019956527020706
 20
-15.43357592664339
 10
2.022235407361554
 20
-15.43585480698423
  0
LWPOLYLINE
  5
723
330
1E
100
AcDbEntity
  8
0
  6
HIDDEN
100
AcDbPolyline
 90
       10
 70
   128
 43
0.0
 10
1.872235273509232
 20
-15.28585496646186
 10
1.898282679274046
 20
-15.30113598993417
 10
1.923538387517949
 20
-15.31595267210393
 10
1.947235340435394
 20
-15.32985475150592
 10
1.968653413011992
 20
-15.34242012634964
 10
1.987141999430264
 20
-15.353266881047
 10
2.002139079516048
 20
-15.36206501941016
 10
2.013189111865131
 20
-15.36854790451932
 10
2.019956527020706
 20
-15.37251783199171
 10
2.022235407361554
 20
-15.37385482987993
  0
LINE
  5
724
330
1E
100
AcDbEntity
  8
0
  6
Continuous
100
AcDbLine
 10
1.948235302217083
 20
-15.57585502968971
 30
0.0
 11
1.823235386226778
 21
-15.57585502968971
 31
0.0
  0
LINE
  5
725
330
1E
100
AcDbEntity
  8
0
  6
HIDDEN
100
AcDbLine
 10
1.948235302217083
 20
-15.07585477906861
 30
0.0
 11
1.69823517690653
 21
-15.07585477906861
 31
0.0
  0
LINE
  5
726
330
1E
100
AcDbEntity
  8
0
  6
Continuous
100
AcDbLine
 10
1.69823517690653
 20
-15.57585502968971
 30
0.0
 11
1.69823517690653
 21
-15.49785507741849
 31
0.0
  0
LINE
  5
727
330
1E
100
AcDbEntity
  8
0
  6
Continuous
100
AcDbLine
 10
1.823235386226778
 20
-15.57585502968971
 30
0.0
 11
1.69823517690653
 21
-15.57585502968971
 31
0.0
  0
LINE
  5
728
330
1E
100
AcDbEntity
  8
0
  6
HIDDEN
100
AcDbLine
 10
1.759235192229148
 20
-15.17285488518177
 30
0.0
 11
1.872235273509232
 21
-15.28585496646186
 31
0.0
  0
LINE
  5
729
330
1E
100
AcDbEntity
  8
0
  6
Continuous
100
AcDbLine
 10
1.948235302217083
 20
-15.57585502968971
 30
0.0
 11
2.073235218207386
 21
-15.57585502968971
 31
0.0
  0
ARC
  5
72A
330
1E
100
AcDbEntity
  8
0
  6
HIDDEN
100
AcDbCircle
 10
1.948235317366991
 20
-15.20085486914972
 30
0.0
 40
0.125
100
AcDbArc
 50
0.0
 51
90.0
  0
LINE
  5
72B
330
1E
100
AcDbEntity
  8
0
  6
Continuous
100
AcDbLine
 10
1.948235302217083
 20
-15.49785507741849
 30
0.0
 11
1.948235302217083
 21
-15.57585502968971
 31
0.0
  0
LINE
  5
72C
330
1E
100
AcDbEntity
  8
0
  6
HIDDEN
100
AcDbLine
 10
2.022235407361554
 20
-15.37385482987993
 30
0.0
 11
2.022235407361554
 21
-15.43585480698423
 31
0.0
  0
LINE
  5
72D
330
1E
100
AcDbEntity
  8
0
  6
HIDDEN
100
AcDbLine
 10
2.073235218207386
 20
-15.48225461763633
 30
0.0
 11
2.073235218207386
 21
-15.20085498838886
 31
0.0
  0
LINE
  5
72E
330
1E
100
AcDbEntity
  8
0
  6
Continuous
100
AcDbLine
 10
2.073235218207386
 20
-15.57585502968971
 30
0.0
 11
2.073235218207386
 21
-15.49785507741849
 31
0.0
  0
LINE
  5
72F
330
1E
100
AcDbEntity
  8
0
  6
HIDDEN
100
AcDbLine
 10
2.073235218207386
 20
-15.49785507741849
 30
0.0
 11
2.073235218207386
 21
-15.48225461763633
 31
0.0
  0
LINE
  5
730
330
1E
100
AcDbEntity
  8
0
  6
HIDDEN
100
AcDbLine
 10
2.323235343517939
 20
-14.37285495351592
 30
0.0
 11
2.323235343517939
 21
-15.48225461763633
 31
0.0
  0
LINE
  5
731
330
1E
100
AcDbEntity
  8
0
  6
Continuous
100
AcDbLine
 10
2.323235343517939
 20
-15.49785507741849
 30
0.0
 11
2.323235343517939
 21
-15.57585502968971
 31
0.0
  0
LINE
  5
732
330
1E
100
AcDbEntity
  8
0
  6
HIDDEN
100
AcDbLine
 10
2.323235343517939
 20
-15.48225461763633
 30
0.0
 11
2.323235343517939
 21
-15.49785507741849
 31
0.0
  0
LINE
  5
733
330
1E
100
AcDbEntity
  8
0
  6
HIDDEN
100
AcDbLine
 10
2.772235343298294
 20
-15.28585496646186
 30
0.0
 11
2.659235262018208
 21
-15.17285488518177
 31
0.0
  0
ARC
  5
734
330
1E
100
AcDbEntity
  8
0
  6
Continuous
100
AcDbCircle
 10
2.574235317366968
 20
-13.99785486914937
 30
0.0
 40
0.28
100
AcDbArc
 50
210.7114196744046
 51
314.2839108917082
  0
ARC
  5
735
330
1E
100
AcDbEntity
  8
0
  6
Continuous
100
AcDbCircle
 10
2.572735317366987
 20
-13.99785486914966
 30
0.0
 40
0.197
100
AcDbArc
 50
0.0
 51
180.0
  0
CIRCLE
  5
736
330
1E
100
AcDbEntity
  8
0
  6
Continuous
100
AcDbCircle
 10
2.552735317366987
 20
-13.02485486914966
 30
0.0
 40
0.1719999999999984
  0
CIRCLE
  5
737
330
1E
100
AcDbEntity
  8
0
  6
Continuous
100
AcDbCircle
 10
3.556735317366987
 20
-13.99785486914966
 30
0.0
 40
0.1720000000000006
  0
LINE
  5
738
330
1E
100
AcDbEntity
  8
0
  6
HIDDEN
100
AcDbLine
 10
2.922235330485641
 20
-15.37385482987993
 30
0.0
 11
2.922235330485641
 21
-15.43585480698423
 31
0.0
  0
LINE
  5
739
330
1E
100
AcDbEntity
  8
0
  6
Continuous
100
AcDbLine
 10
3.205735348802571
 20
-14.65985483806876
 30
0.0
 11
3.330735264792874
 21
-14.78485475405906
 31
0.0
  0
LINE
  5
73A
330
1E
100
AcDbEntity
  8
0
  6
Continuous
100
AcDbLine
 10
3.205735348802571
 20
-14.65985483806876
 30
0.0
 11
3.205735348802571
 21
-14.3748548770793
 31
0.0
  0
CIRCLE
  5
73B
330
1E
100
AcDbEntity
  8
0
  6
Continuous
100
AcDbCircle
 10
2.552735317366987
 20
-12.04085486914966
 30
0.0
 40
0.1249999999999987
  0
CIRCLE
  5
73C
330
1E
100
AcDbEntity
  8
0
  6
Continuous
100
AcDbCircle
 10
5.525735317366988
 20
-13.99785486914966
 30
0.0
 40
0.1249999999999991
  0
CIRCLE
  5
73D
330
1E
100
AcDbEntity
  8
0
  6
Continuous
100
AcDbCircle
 10
4.540735317366987
 20
-13.99785486914966
 30
0.0
 40
0.1249999999999991
  0
CIRCLE
  5
73E
330
1E
100
AcDbEntity
  8
0
  6
Continuous
100
AcDbCircle
 10
6.509735317366988
 20
-13.99785486914966
 30
0.0
 40
0.1720000000000006
  0
LINE
  5
73F
330
1E
100
AcDbEntity
  8
0
  6
Continuous
100
AcDbLine
 10
1.428235229302298
 20
-7.163854739168233
 30
0.0
 11
2.659235262018208
 21
-5.932854853117294
 31
0.0
  0
LINE
  5
740
330
1E
100
AcDbEntity
  8
0
  6
HIDDEN
100
AcDbLine
 10
2.198235427527635
 20
-6.857854994103398
 30
0.0
 11
1.448235344925922
 21
-6.857854994103398
 31
0.0
  0
LINE
  5
741
330
1E
100
AcDbEntity
  8
0
  6
Continuous
100
AcDbLine
 10
1.448235344925922
 20
-1.440979327629861
 30
0.0
 11
2.198235427527635
 21
-1.440979327629861
 31
0.0
  0
LINE
  5
742
330
1E
100
AcDbEntity
  8
0
  6
Continuous
100
AcDbLine
 10
2.198235427527635
 20
-4.372854634372941
 30
0.0
 11
1.448235344925922
 21
-4.372854634372941
 31
0.0
  0
LINE
  5
743
330
1E
100
AcDbEntity
  8
0
  6
Continuous
100
AcDbLine
 10
1.759235192229148
 20
-5.932854853117294
 30
0.0
 11
1.428235229302298
 21
-6.263854816044144
 31
0.0
  0
ARC
  5
744
330
1E
100
AcDbEntity
  8
0
  6
HIDDEN
100
AcDbCircle
 10
1.698235317366988
 20
-5.904854869149364
 30
0.0
 40
0.1250000000000009
100
AcDbArc
 50
180.0
 51
270.0000000000008
  0
LINE
  5
745
330
1E
100
AcDbEntity
  8
0
  6
Continuous
100
AcDbLine
 10
1.69823517690653
 20
-5.529854708609352
 30
0.0
 11
1.573235260916227
 21
-5.529854708609352
 31
0.0
  0
CIRCLE
  5
746
330
1E
100
AcDbEntity
  8
0
  6
Continuous
100
AcDbCircle
 10
1.816235317366984
 20
0.5370209071467436
 30
0.0
 40
0.2499999999999998
  0
LINE
  5
747
330
1E
100
AcDbEntity
  8
0
  6
HIDDEN
100
AcDbLine
 10
1.222235182365754
 20
-7.431854763209084
 30
0.0
 11
1.222235182365754
 21
-6.531854840084996
 31
0.0
  0
ARC
  5
748
330
1E
100
AcDbEntity
  8
0
  6
HIDDEN
100
AcDbCircle
 10
1.448235317366988
 20
-6.732854869149363
 30
0.0
 40
0.125
100
AcDbArc
 50
180.0
 51
270.0000000000008
  0
LWPOLYLINE
  5
749
330
1E
100
AcDbEntity
  8
0
  6
HIDDEN
100
AcDbPolyline
 90
        9
 70
   128
 43
0.0
 10
1.160235205261445
 20
-7.431854763209084
 10
1.163117465298665
 20
-7.42897279650181
 10
1.171653366691204
 20
-7.420436895109272
 10
1.18551496656082
 20
-7.406575295239655
 10
1.204169284397881
 20
-7.387920977402593
 10
1.226899715147339
 20
-7.365190546653135
 10
1.252832722233694
 20
-7.339257246236837
 10
1.280971863834595
 20
-7.311118397965877
 10
1.310235339113766
 20
-7.281854922686708
  0
LWPOLYLINE
  5
74A
330
1E
100
AcDbEntity
  8
0
  6
HIDDEN
100
AcDbPolyline
 90
        9
 70
   128
 43
0.0
 10
1.222235182365754
 20
-7.431854763209084
 10
1.223926229497298
 20
-7.42897279650181
 10
1.228933958314254
 20
-7.420436895109272
 10
1.237065944372858
 20
-7.406575295239655
 10
1.248009791281937
 20
-7.387920977402593
 10
1.261345157230651
 20
-7.365190546653135
 10
1.276559301475559
 20
-7.339257246236837
 10
1.293067324106807
 20
-7.311118397965877
 10
1.310235339113766
 20
-7.281854922686708
  0
LINE
  5
74B
330
1E
100
AcDbEntity
  8
0
  6
HIDDEN
100
AcDbLine
 10
1.222235182365754
 20
-7.431854763209084
 30
0.0
 11
1.160235205261445
 21
-7.431854763209084
 31
0.0
  0
LINE
  5
74C
330
1E
100
AcDbEntity
  8
0
  6
HIDDEN
100
AcDbLine
 10
1.310235339113766
 20
-7.281854922686708
 30
0.0
 11
1.428235229302298
 21
-7.163854739168233
 31
0.0
  0
LINE
  5
74D
330
1E
100
AcDbEntity
  8
0
  6
Continuous
100
AcDbLine
 10
1.323235428935619
 20
-5.514254835487085
 30
0.0
 11
1.323235428935619
 21
-4.49785484369319
 31
0.0
  0
LINE
  5
74E
330
1E
100
AcDbEntity
  8
0
  6
HIDDEN
100
AcDbLine
 10
1.323235428935619
 20
-6.73285478478315
 30
0.0
 11
1.323235428935619
 21
-5.62345512066274
 31
0.0
  0
LWPOLYLINE
  5
74F
330
1E
100
AcDbEntity
  8
0
  6
HIDDEN
100
AcDbPolyline
 90
        9
 70
   128
 43
0.0
 10
1.310235339113766
 20
-6.381854999562619
 10
1.280971863834595
 20
-6.41111847484179
 10
1.252832722233694
 20
-6.439257323112748
 10
1.226899715147339
 20
-6.465190330199103
 10
1.204169284397881
 20
-6.487920760948561
 10
1.18551496656082
 20
-6.506575372115566
 10
1.171653366691204
 20
-6.520436678655238
 10
1.163117465298665
 20
-6.528972580047778
 10
1.160235205261445
 20
-6.531854840084996
  0
LWPOLYLINE
  5
750
330
1E
100
AcDbEntity
  8
0
  6
HIDDEN
100
AcDbPolyline
 90
        9
 70
   128
 43
0.0
 10
1.310235339113766
 20
-6.381854999562619
 10
1.293067324106807
 20
-6.41111847484179
 10
1.276559301475559
 20
-6.439257323112748
 10
1.261345157230651
 20
-6.465190330199103
 10
1.248009791281937
 20
-6.487920760948561
 10
1.237065944372858
 20
-6.506575372115566
 10
1.228933958314254
 20
-6.520436678655238
 10
1.223926229497298
 20
-6.528972580047778
 10
1.222235182365754
 20
-6.531854840084996
  0
LINE
  5
751
330
1E
100
AcDbEntity
  8
0
  6
HIDDEN
100
AcDbLine
 10
1.222235182365754
 20
-6.531854840084996
 30
0.0
 11
1.160235205261445
 21
-6.531854840084996
 31
0.0
  0
LINE
  5
752
330
1E
100
AcDbEntity
  8
0
  6
HIDDEN
100
AcDbLine
 10
1.428235229302298
 20
-6.263854816044144
 30
0.0
 11
1.310235339113766
 21
-6.381854999562619
 31
0.0
  0
LINE
  5
753
330
1E
100
AcDbEntity
  8
0
  6
Continuous
100
AcDbLine
 10
1.175235218646678
 20
-5.60785466088058
 30
0.0
 11
1.213235233000602
 21
-5.60785466088058
 31
0.0
  0
SPLINE
  5
754
330
1E
100
AcDbEntity
  8
0
  6
HIDDEN
100
AcDbSpline
210
0.0
220
0.0
230
1.0
 70
     8
 71
     3
 72
    10
 73
     6
 74
     0
 42
0.0000000001
 43
0.0000000001
 40
0.0
 40
0.0
 40
0.0
 40
0.0
 40
0.5
 40
0.5
 40
1.0
 40
1.0
 40
1.0
 40
1.0
 10
1.235318276866895
 20
-5.68485486914977
 30
0.0
 10
1.225304450283578
 20
-5.68092787726897
 30
0.0
 10
1.215290623700258
 20
-5.677025067147248
 30
0.0
 10
1.195262970533626
 20
-5.671471461970096
 30
0.0
 10
1.185249143950306
 20
-5.66985486508631
 30
0.0
 10
1.175235317366988
 20
-5.66985486508631
 30
0.0
  0
LINE
  5
755
330
1E
100
AcDbEntity
  8
0
  6
HIDDEN
100
AcDbLine
 10
1.160235205261445
 20
-5.669854931314834
 30
0.0
 11
1.205276898269298
 21
-5.669854931314834
 31
0.0
  0
LINE
  5
756
330
1E
100
AcDbEntity
  8
0
  6
Continuous
100
AcDbLine
 10
1.098235228157138
 20
-5.722854959053989
 30
0.0
 11
1.098235228157138
 21
-5.684854944700065
 31
0.0
  0
SPLINE
  5
757
330
1E
100
AcDbEntity
  8
0
  6
HIDDEN
100
AcDbSpline
210
0.0
220
0.0
230
1.0
 70
     8
 71
     3
 72
    10
 73
     6
 74
     0
 42
0.0000000001
 43
0.0000000001
 40
0.0
 40
0.0
 40
0.0
 40
0.0
 40
0.5
 40
0.5
 40
1.0
 40
1.0
 40
1.0
 40
1.0
 10
1.160235313303509
 20
-5.684854869149535
 30
0.0
 10
1.160235313303511
 20
-5.694868695732854
 30
0.0
 10
1.161851910187294
 20
-5.70488252231617
 30
0.0
 10
1.16740551536445
 20
-5.724910175482806
 30
0.0
 10
1.171308325486171
 20
-5.734924002066122
 30
0.0
 10
1.175235317366968
 20
-5.74493782864944
 30
0.0
  0
LINE
  5
758
330
1E
100
AcDbEntity
  8
0
  6
HIDDEN
100
AcDbLine
 10
1.160235205261445
 20
-5.71489633099274
 30
0.0
 11
1.160235205261445
 21
-5.669854931314834
 31
0.0
  0
SPLINE
  5
759
330
1E
100
AcDbEntity
  8
0
  6
HIDDEN
100
AcDbSpline
210
0.0
220
0.0
230
1.0
 70
     8
 71
     3
 72
    10
 73
     6
 74
     0
 42
0.0000000001
 43
0.0000000001
 40
0.0
 40
0.0
 40
0.0
 40
0.0
 40
0.5
 40
0.5
 40
1.0
 40
1.0
 40
1.0
 40
1.0
 10
1.160235313303076
 20
-5.714896343718045
 30
0.0
 10
1.16370196388512
 20
-5.719316322013863
 30
0.0
 10
1.166401569848872
 20
-5.724278229259283
 30
0.0
 10
1.171138442640216
 20
-5.734465036033375
 30
0.0
 10
1.173183673016506
 20
-5.739706136973012
 30
0.0
 10
1.175235317366968
 20
-5.74493782864944
 30
0.0
  0
ARC
  5
75A
330
1E
100
AcDbEntity
  8
0
  6
Continuous
100
AcDbCircle
 10
1.175235317366968
 20
-5.68485486914977
 30
0.0
 40
0.0770000000000004
100
AcDbArc
 50
90.0
 51
180.0
  0
LWPOLYLINE
  5
75B
330
1E
100
AcDbEntity
  8
0
  6
HIDDEN
100
AcDbPolyline
 90
        9
 70
   128
 43
0.0
 10
1.160235205261445
 20
-5.669854931314834
 10
1.160523548597145
 20
-5.670142981320587
 10
1.1613771387364
 20
-5.670996571459841
 10
1.162763416055339
 20
-5.672382848778781
 10
1.164628701174073
 20
-5.674248133897515
 10
1.166901714916024
 20
-5.676521440969411
 10
1.169495044957654
 20
-5.679114477681096
 10
1.172308959117744
 20
-5.681928391841186
 10
1.175235218646678
 20
-5.684854944700065
  0
SPLINE
  5
75C
330
1E
100
AcDbEntity
  8
0
  6
HIDDEN
100
AcDbSpline
210
0.0
220
0.0
230
1.0
 70
     8
 71
     3
 72
    10
 73
     6
 74
     0
 42
0.0000000001
 43
0.0000000001
 40
0.0
 40
0.0
 40
0.0
 40
0.0
 40
0.5
 40
0.5
 40
1.0
 40
1.0
 40
1.0
 40
1.0
 10
1.235318276866895
 20
-5.68485486914977
 30
0.0
 10
1.2300810931963
 20
-5.682801071075523
 30
0.0
 10
1.224840087974529
 20
-5.680756090188589
 30
0.0
 10
1.214641384800911
 20
-5.67601247413885
 30
0.0
 10
1.209674419757664
 20
-5.673303985739604
 30
0.0
 10
1.205276792713236
 20
-5.669854865695613
 30
0.0
  0
LINE
  5
75D
330
1E
100
AcDbEntity
  8
0
  6
HIDDEN
100
AcDbLine
 10
1.573235260916227
 20
-5.62345512066274
 30
0.0
 11
1.573235260916227
 21
-5.904854749910208
 31
0.0
  0
LINE
  5
75E
330
1E
100
AcDbEntity
  8
0
  6
Continuous
100
AcDbLine
 10
1.573235260916227
 20
-5.529854708609352
 30
0.0
 11
1.323235428935619
 21
-5.529854708609352
 31
0.0
  0
LINE
  5
75F
330
1E
100
AcDbEntity
  8
0
  6
Continuous
100
AcDbLine
 10
1.323235428935619
 20
-5.60785466088058
 30
0.0
 11
1.323235428935619
 21
-5.529854708609352
 31
0.0
  0
LINE
  5
760
330
1E
100
AcDbEntity
  8
0
  6
HIDDEN
100
AcDbLine
 10
1.323235428935619
 20
-5.62345512066274
 30
0.0
 11
1.323235428935619
 21
-5.60785466088058
 31
0.0
  0
LINE
  5
761
330
1E
100
AcDbEntity
  8
0
  6
Continuous
100
AcDbLine
 10
1.323235428935619
 20
-5.529854708609352
 30
0.0
 11
1.323235428935619
 21
-5.514254835487085
 31
0.0
  0
LINE
  5
762
330
1E
100
AcDbEntity
  8
0
  6
Continuous
100
AcDbLine
 10
1.573235260916227
 20
-5.529854708609352
 30
0.0
 11
1.573235260916227
 21
-5.60785466088058
 31
0.0
  0
LINE
  5
763
330
1E
100
AcDbEntity
  8
0
  6
HIDDEN
100
AcDbLine
 10
1.573235260916227
 20
-5.60785466088058
 30
0.0
 11
1.573235260916227
 21
-5.62345512066274
 31
0.0
  0
ARC
  5
764
330
1E
100
AcDbEntity
  8
0
  6
Continuous
100
AcDbCircle
 10
1.448235317366986
 20
-4.497854869149364
 30
0.0
 40
0.1250000000000004
100
AcDbArc
 50
90.0
 51
180.0
  0
LINE
  5
765
330
1E
100
AcDbEntity
  8
0
  6
Continuous
100
AcDbLine
 10
-3.448071664198244
 20
0.7720208676030396
 30
0.0
 11
-3.448071664198244
 21
0.302020937082343
 31
0.0
  0
LINE
  5
766
330
1E
100
AcDbEntity
  8
0
  6
Continuous
100
AcDbLine
 10
-3.41507967199122
 20
0.7441345764145204
 30
0.0
 11
-3.41507967199122
 21
0.3299072282708622
 31
0.0
  0
LINE
  5
767
330
1E
100
AcDbEntity
  8
0
  6
Continuous
100
AcDbLine
 10
-3.332087830720052
 20
0.6375722074321005
 30
0.0
 11
-3.332087830720052
 21
0.4364695972532822
 31
0.0
  0
LINE
  5
768
330
1E
100
AcDbEntity
  8
0
  6
HIDDEN
100
AcDbLine
 10
-3.355071991871727
 20
0.5252681981109327
 30
0.0
 11
-3.355071991871727
 21
0.4920902347189298
 31
0.0
  0
ARC
  5
769
330
1E
100
AcDbEntity
  8
0
  6
Continuous
100
AcDbCircle
 10
-3.595071813819973
 20
-0.2289790928532582
 30
0.0
 40
0.0769999999999993
100
AcDbArc
 50
269.9999999999997
 51
0.0000000000012213
  0
ARC
  5
76A
330
1E
100
AcDbEntity
  8
0
  6
HIDDEN
100
AcDbCircle
 10
-3.595071813819973
 20
-0.2289790928532582
 30
0.0
 40
0.0149999999999997
100
AcDbArc
 50
269.9999999999957
 51
0.0000000000083458
  0
LINE
  5
76B
330
1E
100
AcDbEntity
  8
0
  6
HIDDEN
100
AcDbLine
 10
-3.541071923184647
 20
-0.06889624471739
 30
0.0
 11
-3.541071923184647
 21
-0.1289790173027399
 31
0.0
  0
ARC
  5
76C
330
1E
100
AcDbEntity
  8
0
  6
HIDDEN
100
AcDbCircle
 10
-3.618071813819982
 20
-0.1289790928532675
 30
0.0
 40
0.077
100
AcDbArc
 50
270.0000000000008
 51
0.0000000000004071
  0
SPLINE
  5
76D
330
1E
100
AcDbEntity
  8
0
  6
HIDDEN
100
AcDbSpline
210
0.0
220
0.0
230
1.0
 70
     8
 71
     3
 72
    10
 73
     6
 74
     0
 42
0.0000000001
 43
0.0000000001
 40
0.0
 40
0.0
 40
0.0
 40
0.0
 40
0.5
 40
0.5
 40
1.0
 40
1.0
 40
1.0
 40
1.0
 10
-3.618071813815519
 20
-0.1289790928418135
 30
0.0
 10
-3.616017981905313
 20
-0.1237418228895528
 30
0.0
 10
-3.613972976823599
 20
-0.1185007330677159
 30
0.0
 10
-3.609229080493705
 20
-0.1083015270736318
 30
0.0
 10
-3.606521711116245
 20
-0.1033362373381159
 30
0.0
 10
-3.603071813819999
 20
-0.0989376182842143
 30
0.0
  0
SPLINE
  5
76E
330
1E
100
AcDbEntity
  8
0
  6
HIDDEN
100
AcDbSpline
210
0.0
220
0.0
230
1.0
 70
     8
 71
     3
 72
    10
 73
     6
 74
     0
 42
0.0000000001
 43
0.0000000001
 40
0.0
 40
0.0
 40
0.0
 40
0.0
 40
0.5
 40
0.5
 40
1.0
 40
1.0
 40
1.0
 40
1.0
 10
-3.603071809756551
 20
-0.0688961333533662
 30
0.0
 10
-3.603071809756551
 20
-0.0789099599366807
 30
0.0
 10
-3.604688406640335
 20
-0.0889237865199988
 30
0.0
 10
-3.61024201181749
 20
-0.1089514396866349
 30
0.0
 10
-3.614144821939213
 20
-0.118965266269953
 30
0.0
 10
-3.61807181382001
 20
-0.128979092853271
 30
0.0
  0
SPLINE
  5
76F
330
1E
100
AcDbEntity
  8
0
  6
HIDDEN
100
AcDbSpline
210
0.0
220
0.0
230
1.0
 70
     8
 71
     3
 72
    10
 73
     6
 74
     0
 42
0.0000000001
 43
0.0000000001
 40
0.0
 40
0.0
 40
0.0
 40
0.0
 40
0.5
 40
0.5
 40
1.0
 40
1.0
 40
1.0
 40
1.0
 10
-3.603071811788275
 20
-0.0688961333533662
 30
0.0
 10
-3.603071811788276
 20
-0.0741333171781875
 30
0.0
 10
-3.603071813819997
 20
-0.0793743225547807
 30
0.0
 10
-3.603071813819998
 20
-0.0895730260114078
 30
0.0
 10
-3.603071813819994
 20
-0.0945399911745497
 30
0.0
 10
-3.603071813819995
 20
-0.0989376182841539
 30
0.0
  0
LINE
  5
770
330
1E
100
AcDbEntity
  8
0
  6
HIDDEN
100
AcDbLine
 10
-3.603071900288955
 20
-0.0989376310100632
 30
0.0
 11
-3.603071900288955
 21
-0.1439790306879694
 31
0.0
  0
LWPOLYLINE
  5
771
330
1E
100
AcDbEntity
  8
0
  6
HIDDEN
100
AcDbPolyline
 90
        2
 70
   128
 43
0.0
 10
-3.603071900288955
 20
-0.1439790306879694
 10
-3.603071900288955
 20
-0.1439790306879694
  0
SPLINE
  5
772
330
1E
100
AcDbEntity
  8
0
  6
HIDDEN
100
AcDbSpline
210
0.0
220
0.0
230
1.0
 70
     8
 71
     3
 72
    10
 73
     6
 74
     0
 42
0.0000000001
 43
0.0000000001
 40
0.0
 40
0.0
 40
0.0
 40
0.0
 40
0.5
 40
0.5
 40
1.0
 40
1.0
 40
1.0
 40
1.0
 10
-3.618071813819982
 20
-0.1439790969167305
 30
0.0
 10
-3.614144821939182
 20
-0.143979096916734
 30
0.0
 10
-3.61024201181746
 20
-0.1423625000329451
 30
0.0
 10
-3.604688406640304
 20
-0.1368088948557897
 30
0.0
 10
-3.603071809756519
 20
-0.1329060847340706
 30
0.0
 10
-3.603071809756519
 20
-0.128979092853271
 30
0.0
  0
LINE
  5
773
330
1E
100
AcDbEntity
  8
0
  6
HIDDEN
100
AcDbLine
 10
-3.603071900288955
 20
0.1190208911144879
 30
0.0
 11
-3.541071923184647
 21
0.1190208911144879
 31
0.0
  0
SPLINE
  5
774
330
1E
100
AcDbEntity
  8
0
  6
HIDDEN
100
AcDbSpline
210
0.0
220
0.0
230
1.0
 70
    24
 71
     1
 72
     4
 73
     2
 74
     0
 42
0.0000000001
 43
0.0000000001
 40
0.0
 40
0.0
 40
1.0
 40
1.0
 10
-3.580071899320264
 20
0.4220210441642003
 30
0.0
 10
-3.518071922215957
 20
0.4220210441642003
 30
0.0
  0
ARC
  5
775
330
1E
100
AcDbEntity
  8
0
  6
Continuous
100
AcDbCircle
 10
-3.410827719331786
 20
0.4364697260443791
 30
0.0
 40
0.0787401574803153
100
AcDbArc
 50
270.0000000000008
 51
0.0
  0
SPLINE
  5
776
330
1E
100
AcDbEntity
  8
0
  6
Continuous
100
AcDbSpline
210
0.0
220
0.0
230
1.0
 70
    24
 71
     1
 72
     4
 73
     2
 74
     0
 42
0.0000000001
 43
0.0000000001
 40
0.0
 40
0.0
 40
1.0
 40
1.0
 10
-3.448071664198244
 20
0.3270208616144146
 30
0.0
 10
-3.41507967199122
 20
0.3299072282708622
 30
0.0
  0
ARC
  5
777
330
1E
100
AcDbEntity
  8
0
  6
Continuous
100
AcDbCircle
 10
-3.463071813819974
 20
0.3020209071467441
 30
0.0
 40
0.0149999999999997
100
AcDbArc
 50
270.0000000000008
 51
0.0
  0
SPLINE
  5
778
330
1E
100
AcDbEntity
  8
0
  6
Continuous
100
AcDbSpline
210
0.0
220
0.0
230
1.0
 70
    24
 71
     1
 72
     4
 73
     2
 74
     0
 42
0.0000000001
 43
0.0000000001
 40
0.0
 40
0.0
 40
1.0
 40
1.0
 10
-3.50307161550078
 20
0.2870209236971099
 30
0.0
 10
-3.463071970913421
 20
0.2870209236971099
 30
0.0
  0
ARC
  5
779
330
1E
100
AcDbEntity
  8
0
  6
Continuous
100
AcDbCircle
 10
-3.503071813819975
 20
0.3020209071467441
 30
0.0
 40
0.0149999999999997
100
AcDbArc
 50
180.0
 51
270.0000000000008
  0
SPLINE
  5
77A
330
1E
100
AcDbEntity
  8
0
  6
Continuous
100
AcDbSpline
210
0.0
220
0.0
230
1.0
 70
    24
 71
     1
 72
     4
 73
     2
 74
     0
 42
0.0000000001
 43
0.0000000001
 40
0.0
 40
0.0
 40
1.0
 40
1.0
 10
-3.41507967199122
 20
0.3577295735314188
 30
0.0
 10
-3.410827561111968
 20
0.3577295735314188
 30
0.0
  0
ARC
  5
77B
330
1E
100
AcDbEntity
  8
0
  6
HIDDEN
100
AcDbCircle
 10
-3.503071813819975
 20
0.4370209071467422
 30
0.0
 40
0.0150000000000003
100
AcDbArc
 50
90.0
 51
180.0
  0
ARC
  5
77C
330
1E
100
AcDbEntity
  8
0
  6
HIDDEN
100
AcDbCircle
 10
-3.463071813819974
 20
0.4370209071467422
 30
0.0
 40
0.0150000000000003
100
AcDbArc
 50
0.0
 51
90.0
  0
SPLINE
  5
77D
330
1E
100
AcDbEntity
  8
0
  6
HIDDEN
100
AcDbSpline
210
0.0
220
0.0
230
1.0
 70
    24
 71
     1
 72
     4
 73
     2
 74
     0
 42
0.0000000001
 43
0.0000000001
 40
0.0
 40
0.0
 40
1.0
 40
1.0
 10
-3.50307161550078
 20
0.4520207776047194
 30
0.0
 10
-3.463071970913421
 20
0.4520207776047194
 30
0.0
  0
LINE
  5
77E
330
1E
100
AcDbEntity
  8
0
  6
HIDDEN
100
AcDbLine
 10
-3.355071991871727
 20
0.4920902347189298
 30
0.0
 11
-3.332087830720052
 21
0.4920902347189298
 31
0.0
  0
LINE
  5
77F
330
1E
100
AcDbEntity
  8
0
  6
HIDDEN
100
AcDbLine
 10
-3.355071991871728
 20
0.4920902347189298
 30
0.0
 11
-3.355071991871728
 21
0.4470813946648918
 31
0.0
  0
LINE
  5
780
330
1E
100
AcDbEntity
  8
0
  6
HIDDEN
100
AcDbLine
 10
-3.355071991871728
 20
0.4582270525759676
 30
0.0
 11
-3.332087830720052
 21
0.4582270525759676
 31
0.0
  0
LINE
  5
781
330
1E
100
AcDbEntity
  8
0
  6
HIDDEN
100
AcDbLine
 10
-3.355071991871728
 20
0.4470813946648918
 30
0.0
 11
-3.332087830720052
 21
0.4470813946648918
 31
0.0
  0
SPLINE
  5
782
330
1E
100
AcDbEntity
  8
0
  6
HIDDEN
100
AcDbSpline
210
0.0
220
0.0
230
1.0
 70
    24
 71
     1
 72
     4
 73
     2
 74
     0
 42
0.0000000001
 43
0.0000000001
 40
0.0
 40
0.0
 40
1.0
 40
1.0
 10
-3.518071922215957
 20
0.6520207605211823
 30
0.0
 10
-3.580071899320264
 20
0.6520207605211823
 30
0.0
  0
LINE
  5
783
330
1E
100
AcDbEntity
  8
0
  6
HIDDEN
100
AcDbLine
 10
-3.355071991871728
 20
0.6158147521094151
 30
0.0
 11
-3.355071991871728
 21
0.5480370550831531
 31
0.0
  0
LINE
  5
784
330
1E
100
AcDbEntity
  8
0
  6
HIDDEN
100
AcDbLine
 10
-3.355071991871727
 20
0.5252681981109327
 30
0.0
 11
-3.332087830720052
 21
0.5252681981109327
 31
0.0
  0
LINE
  5
785
330
1E
100
AcDbEntity
  8
0
  6
HIDDEN
100
AcDbLine
 10
-3.355071991871728
 20
0.5480370550831531
 30
0.0
 11
-3.355071991871727
 21
0.5252681981109327
 31
0.0
  0
LINE
  5
786
330
1E
100
AcDbEntity
  8
0
  6
HIDDEN
100
AcDbLine
 10
-3.355071991871728
 20
0.5148590916911502
 30
0.0
 11
-3.332087830720052
 21
0.5148590916911502
 31
0.0
  0
LINE
  5
787
330
1E
100
AcDbEntity
  8
0
  6
HIDDEN
100
AcDbLine
 10
-3.355071991871728
 20
0.5480370550831531
 30
0.0
 11
-3.332087830720052
 21
0.5480370550831531
 31
0.0
  0
LINE
  5
788
330
1E
100
AcDbEntity
  8
0
  6
HIDDEN
100
AcDbLine
 10
-3.355071991871728
 20
0.5591827129942289
 30
0.0
 11
-3.332087830720052
 21
0.5591827129942289
 31
0.0
  0
LINE
  5
789
330
1E
100
AcDbEntity
  8
0
  6
HIDDEN
100
AcDbLine
 10
-3.355071991871728
 20
0.526004749602226
 30
0.0
 11
-3.332087830720052
 21
0.526004749602226
 31
0.0
  0
LINE
  5
78A
330
1E
100
AcDbEntity
  8
0
  6
HIDDEN
100
AcDbLine
 10
-3.355071991871728
 20
0.54877360657445
 30
0.0
 11
-3.332087830720052
 21
0.54877360657445
 31
0.0
  0
LINE
  5
78B
330
1E
100
AcDbEntity
  8
0
  6
HIDDEN
100
AcDbLine
 10
-3.355071991871728
 20
0.5819515699664493
 30
0.0
 11
-3.332087830720052
 21
0.5819515699664493
 31
0.0
  0
SPLINE
  5
78C
330
1E
100
AcDbEntity
  8
0
  6
Continuous
100
AcDbSpline
210
0.0
220
0.0
230
1.0
 70
    24
 71
     1
 72
     4
 73
     2
 74
     0
 42
0.0000000001
 43
0.0000000001
 40
0.0
 40
0.0
 40
1.0
 40
1.0
 10
-3.41507967199122
 20
0.7441345764145204
 30
0.0
 10
-3.448071664198244
 20
0.747020943070968
 30
0.0
  0
ARC
  5
78D
330
1E
100
AcDbEntity
  8
0
  6
HIDDEN
100
AcDbCircle
 10
-3.503071813819975
 20
0.6370209071467415
 30
0.0
 40
0.0150000000000003
100
AcDbArc
 50
180.0
 51
270.0000000000008
  0
ARC
  5
78E
330
1E
100
AcDbEntity
  8
0
  6
HIDDEN
100
AcDbCircle
 10
-3.463071813819974
 20
0.6370209071467415
 30
0.0
 40
0.0150000000000003
100
AcDbArc
 50
270.0000000000008
 51
0.0
  0
SPLINE
  5
78F
330
1E
100
AcDbEntity
  8
0
  6
HIDDEN
100
AcDbSpline
210
0.0
220
0.0
230
1.0
 70
    24
 71
     1
 72
     4
 73
     2
 74
     0
 42
0.0000000001
 43
0.0000000001
 40
0.0
 40
0.0
 40
1.0
 40
1.0
 10
-3.463071970913421
 20
0.6220210270806632
 30
0.0
 10
-3.50307161550078
 20
0.6220210270806632
 30
0.0
  0
SPLINE
  5
790
330
1E
100
AcDbEntity
  8
0
  6
Continuous
100
AcDbSpline
210
0.0
220
0.0
230
1.0
 70
    24
 71
     1
 72
     4
 73
     2
 74
     0
 42
0.0000000001
 43
0.0000000001
 40
0.0
 40
0.0
 40
1.0
 40
1.0
 10
-3.410827561111968
 20
0.7163122311539603
 30
0.0
 10
-3.41507967199122
 20
0.7163122311539603
 30
0.0
  0
ARC
  5
791
330
1E
100
AcDbEntity
  8
0
  6
Continuous
100
AcDbCircle
 10
-3.410827719331786
 20
0.6375720882491045
 30
0.0
 40
0.0787401574803153
100
AcDbArc
 50
0.0000000000004071
 51
90.0
  0
LINE
  5
792
330
1E
100
AcDbEntity
  8
0
  6
HIDDEN
100
AcDbLine
 10
-3.355071991871728
 20
0.6269604100204909
 30
0.0
 11
-3.355071991871728
 21
0.6158147521094151
 31
0.0
  0
LINE
  5
793
330
1E
100
AcDbEntity
  8
0
  6
HIDDEN
100
AcDbLine
 10
-3.355071991871728
 20
0.6158147521094151
 30
0.0
 11
-3.332087830720052
 21
0.6158147521094151
 31
0.0
  0
LINE
  5
794
330
1E
100
AcDbEntity
  8
0
  6
HIDDEN
100
AcDbLine
 10
-3.355071991871728
 20
0.6269604100204909
 30
0.0
 11
-3.332087830720052
 21
0.6269604100204909
 31
0.0
  0
ARC
  5
795
330
1E
100
AcDbEntity
  8
0
  6
Continuous
100
AcDbCircle
 10
-3.463071813819974
 20
0.772020907146743
 30
0.0
 40
0.0149999999999998
100
AcDbArc
 50
0.0
 51
90.0
  0
SPLINE
  5
796
330
1E
100
AcDbEntity
  8
0
  6
Continuous
100
AcDbSpline
210
0.0
220
0.0
230
1.0
 70
    24
 71
     1
 72
     4
 73
     2
 74
     0
 42
0.0000000001
 43
0.0000000001
 40
0.0
 40
0.0
 40
1.0
 40
1.0
 10
-3.463071970913421
 20
0.7870208809882691
 30
0.0
 10
-3.50307161550078
 20
0.7870208809882691
 30
0.0
  0
ARC
  5
797
330
1E
100
AcDbEntity
  8
0
  6
Continuous
100
AcDbCircle
 10
-3.503071813819975
 20
0.772020907146743
 30
0.0
 40
0.0149999999999998
100
AcDbArc
 50
90.0
 51
180.0
  0
LINE
  5
798
330
1E
100
AcDbEntity
  8
0
  6
Continuous
100
AcDbLine
 10
1.323235428935619
 20
-0.3059789992505095
 30
0.0
 11
1.323235428935619
 21
-1.315979118309613
 31
0.0
  0
ARC
  5
799
330
1E
100
AcDbEntity
  8
0
  6
Continuous
100
AcDbCircle
 10
1.448235317366991
 20
-1.315979092853451
 30
0.0
 40
0.1250000000000004
100
AcDbArc
 50
180.0000000000012
 51
270.0000000000008
  0
ARC
  5
79A
330
1E
100
AcDbEntity
  8
0
  6
Continuous
100
AcDbCircle
 10
1.050235317366983
 20
-0.2289790928532547
 30
0.0
 40
0.0770000000000003
100
AcDbArc
 50
180.0000000000024
 51
270.0000000000008
  0
LINE
  5
79B
330
1E
100
AcDbEntity
  8
0
  6
Continuous
100
AcDbLine
 10
6.7357353699411
 20
-6.320854984240003
 30
0.0
 11
3.330735264792874
 21
-6.320854984240003
 31
0.0
  0
LINE
  5
79C
330
1E
100
AcDbEntity
  8
0
  6
Continuous
100
AcDbLine
 10
2.769735292179097
 20
-6.730854861219771
 30
0.0
 11
2.769735292179097
 21
-7.107854826084006
 31
0.0
  0
ARC
  5
79D
330
1E
100
AcDbEntity
  8
0
  6
Continuous
100
AcDbCircle
 10
2.574235317366968
 20
-7.107854869149699
 30
0.0
 40
0.2800000000000003
100
AcDbArc
 50
90.0
 51
149.2885803256552
  0
ARC
  5
79E
330
1E
100
AcDbEntity
  8
0
  6
HIDDEN
100
AcDbCircle
 10
2.198235317366988
 20
-6.732854869149363
 30
0.0
 40
0.125
100
AcDbArc
 50
270.0000000000008
 51
0.0
  0
ARC
  5
79F
330
1E
100
AcDbEntity
  8
0
  6
Continuous
100
AcDbCircle
 10
2.574235317366968
 20
-7.107854869149699
 30
0.0
 40
0.2800000000000006
100
AcDbArc
 50
45.71608910829261
 51
90.0
  0
CIRCLE
  5
7A0
330
1E
100
AcDbEntity
  8
0
  6
Continuous
100
AcDbCircle
 10
2.552735317366987
 20
-9.064854869149659
 30
0.0
 40
0.1249999999999987
  0
LINE
  5
7A1
330
1E
100
AcDbEntity
  8
0
  6
Continuous
100
AcDbLine
 10
2.375735243701278
 20
-6.9648550113634
 30
0.0
 11
2.205735287555279
 21
-6.9648550113634
 31
0.0
  0
LINE
  5
7A2
330
1E
100
AcDbEntity
  8
0
  6
Continuous
100
AcDbLine
 10
2.205735287555279
 20
-6.9648550113634
 30
0.0
 11
2.080735371564975
 21
-7.089854927353705
 31
0.0
  0
CIRCLE
  5
7A3
330
1E
100
AcDbEntity
  8
0
  6
Continuous
100
AcDbCircle
 10
2.552735317366987
 20
-8.080854869149659
 30
0.0
 40
0.1719999999999984
  0
ARC
  5
7A4
330
1E
100
AcDbEntity
  8
0
  6
Continuous
100
AcDbCircle
 10
2.572735317366987
 20
-7.107854869149658
 30
0.0
 40
0.197
100
AcDbArc
 50
179.9999999999993
 51
0.0
  0
CIRCLE
  5
7A5
330
1E
100
AcDbEntity
  8
0
  6
Continuous
100
AcDbCircle
 10
2.574235317366968
 20
-7.107854869149699
 30
0.0
 40
0.1575000000000006
  0
ARC
  5
7A6
330
1E
100
AcDbEntity
  8
0
  6
HIDDEN
100
AcDbCircle
 10
2.574235317366968
 20
-7.107854869149699
 30
0.0
 40
0.2800000000000006
100
AcDbArc
 50
149.2885803256552
 51
45.71608910829261
  0
LINE
  5
7A7
330
1E
100
AcDbEntity
  8
0
  6
Continuous
100
AcDbLine
 10
2.375735243701278
 20
-7.107854826084006
 30
0.0
 11
2.375735243701278
 21
-6.9648550113634
 31
0.0
  0
CIRCLE
  5
7A8
330
1E
100
AcDbEntity
  8
0
  6
Continuous
100
AcDbCircle
 10
3.556735317366987
 20
-7.10785486914966
 30
0.0
 40
0.1720000000000006
  0
LINE
  5
7A9
330
1E
100
AcDbEntity
  8
0
  6
Continuous
100
AcDbLine
 10
3.205735348802571
 20
-6.730854861219771
 30
0.0
 11
2.769735292179097
 21
-6.730854861219771
 31
0.0
  0
LINE
  5
7AA
330
1E
100
AcDbEntity
  8
0
  6
HIDDEN
100
AcDbLine
 10
2.022235407361554
 20
-5.731854908419141
 30
0.0
 11
2.922235330485641
 21
-5.731854908419141
 31
0.0
  0
LWPOLYLINE
  5
7AB
330
1E
100
AcDbEntity
  8
0
  6
HIDDEN
100
AcDbPolyline
 90
        9
 70
   128
 43
0.0
 10
2.772235343298294
 20
-5.819854771837208
 10
2.801498818577464
 20
-5.790591296558039
 10
2.829637813513393
 20
-5.762452448287081
 10
2.855570820599748
 20
-5.736519441200726
 10
2.878301398014178
 20
-5.713788717121325
 10
2.896955715851241
 20
-5.695134399284262
 10
2.910817315720855
 20
-5.681272799414646
 10
2.919353070448423
 20
-5.672737191352052
 10
2.922235330485641
 20
-5.669854931314834
  0
LWPOLYLINE
  5
7AC
330
1E
100
AcDbEntity
  8
0
  6
HIDDEN
100
AcDbPolyline
 90
        9
 70
   128
 43
0.0
 10
2.772235343298294
 20
-5.819854771837208
 10
2.801498818577464
 20
-5.802687050160194
 10
2.829637813513393
 20
-5.786178734199001
 10
2.855570820599748
 20
-5.770964589954095
 10
2.878301398014178
 20
-5.757629517335324
 10
2.896955715851241
 20
-5.746685670426245
 10
2.910817315720855
 20
-5.738553391037697
 10
2.919353070448423
 20
-5.733545662220741
 10
2.922235330485641
 20
-5.731854908419141
  0
ARC
  5
7AD
330
1E
100
AcDbEntity
  8
0
  6
Continuous
100
AcDbCircle
 10
1.823235317366986
 20
-5.142854869149363
 30
0.0
 40
0.2185000000000001
100
AcDbArc
 50
180.0
 51
0.0
  0
LINE
  5
7AE
330
1E
100
AcDbEntity
  8
0
  6
Continuous
100
AcDbLine
 10
2.323235343517939
 20
-5.514254835487085
 30
0.0
 11
2.323235343517939
 21
-4.49785484369319
 31
0.0
  0
LINE
  5
7AF
330
1E
100
AcDbEntity
  8
0
  6
HIDDEN
100
AcDbLine
 10
2.230235377861479
 20
-6.298854945052999
 30
0.0
 11
2.293235316747475
 21
-6.298854945052999
 31
0.0
  0
LINE
  5
7B0
330
1E
100
AcDbEntity
  8
0
  6
HIDDEN
100
AcDbLine
 10
2.204235198217773
 20
-5.709854869232136
 30
0.0
 11
2.492235337882249
 21
-5.709854869232136
 31
0.0
  0
LINE
  5
7B1
330
1E
100
AcDbEntity
  8
0
  6
Continuous
100
AcDbLine
 10
2.323235343517939
 20
-5.529854708609352
 30
0.0
 11
2.073235218207386
 21
-5.529854708609352
 31
0.0
  0
SPLINE
  5
7B2
330
1E
100
AcDbEntity
  8
0
  6
HIDDEN
100
AcDbSpline
210
0.0
220
0.0
230
1.0
 70
    24
 71
     1
 72
     4
 73
     2
 74
     0
 42
0.0000000001
 43
0.0000000001
 40
0.0
 40
0.0
 40
1.0
 40
1.0
 10
2.230235377861479
 20
-5.709854869232136
 30
0.0
 10
2.230235377861479
 20
-6.298854945052999
 30
0.0
  0
CIRCLE
  5
7B3
330
1E
100
AcDbEntity
  8
0
  6
HIDDEN
100
AcDbCircle
 10
1.823235317366986
 20
-6.382854869149365
 30
0.0
 40
0.2184999999999997
  0
CIRCLE
  5
7B4
330
1E
100
AcDbEntity
  8
0
  6
HIDDEN
100
AcDbCircle
 10
1.81623531736699
 20
-6.325854869149772
 30
0.0
 40
0.1199999999999992
  0
CIRCLE
  5
7B5
330
1E
100
AcDbEntity
  8
0
  6
HIDDEN
100
AcDbCircle
 10
1.81623531736699
 20
-6.325854869149772
 30
0.0
 40
0.1875
  0
CIRCLE
  5
7B6
330
1E
100
AcDbEntity
  8
0
  6
HIDDEN
100
AcDbCircle
 10
1.823235317366989
 20
-6.382854869149362
 30
0.0
 40
0.1970000000000018
  0
CIRCLE
  5
7B7
330
1E
100
AcDbEntity
  8
0
  6
Continuous
100
AcDbCircle
 10
1.81623531736699
 20
-6.325854869149772
 30
0.0
 40
0.0780000000000003
  0
LWPOLYLINE
  5
7B8
330
1E
100
AcDbEntity
  8
0
  6
HIDDEN
100
AcDbPolyline
 90
        9
 70
   128
 43
0.0
 10
2.022235407361554
 20
-5.669854931314834
 10
2.019353147324334
 20
-5.672737191352052
 10
2.010817245931795
 20
-5.681272799414646
 10
1.996955646062179
 20
-5.695134399284262
 10
1.978301328225118
 20
-5.713788717121325
 10
1.955570897475661
 20
-5.736519441200726
 10
1.929637890389304
 20
-5.762452448287081
 10
1.901498748788403
 20
-5.790591296558039
 10
1.872235273509232
 20
-5.819854771837208
  0
LINE
  5
7B9
330
1E
100
AcDbEntity
  8
0
  6
HIDDEN
100
AcDbLine
 10
1.69823517690653
 20
-6.029854959230457
 30
0.0
 11
1.948235302217083
 21
-6.029854959230457
 31
0.0
  0
LWPOLYLINE
  5
7BA
330
1E
100
AcDbEntity
  8
0
  6
HIDDEN
100
AcDbPolyline
 90
        9
 70
   128
 43
0.0
 10
2.022235407361554
 20
-5.731854908419141
 10
2.019353147324334
 20
-5.733545662220741
 10
2.010817245931795
 20
-5.738553391037697
 10
1.996955646062179
 20
-5.746685670426245
 10
1.978301328225118
 20
-5.757629517335324
 10
1.955570897475661
 20
-5.770964589954095
 10
1.929637890389304
 20
-5.786178734199001
 10
1.901498748788403
 20
-5.802687050160194
 10
1.872235273509232
 20
-5.819854771837208
  0
LINE
  5
7BB
330
1E
100
AcDbEntity
  8
0
  6
Continuous
100
AcDbLine
 10
1.823235386226778
 20
-5.529854708609352
 30
0.0
 11
1.948235302217083
 21
-5.529854708609352
 31
0.0
  0
LINE
  5
7BC
330
1E
100
AcDbEntity
  8
0
  6
HIDDEN
100
AcDbLine
 10
1.872235273509232
 20
-5.819854771837208
 30
0.0
 11
1.759235192229148
 21
-5.932854853117294
 31
0.0
  0
LINE
  5
7BD
330
1E
100
AcDbEntity
  8
0
  6
Continuous
100
AcDbLine
 10
1.69823517690653
 20
-5.60785466088058
 30
0.0
 11
1.69823517690653
 21
-5.529854708609352
 31
0.0
  0
LINE
  5
7BE
330
1E
100
AcDbEntity
  8
0
  6
Continuous
100
AcDbLine
 10
1.69823517690653
 20
-5.529854708609352
 30
0.0
 11
1.823235386226778
 21
-5.529854708609352
 31
0.0
  0
LINE
  5
7BF
330
1E
100
AcDbEntity
  8
0
  6
Continuous
100
AcDbLine
 10
1.948235302217083
 20
-5.529854708609352
 30
0.0
 11
2.073235218207386
 21
-5.529854708609352
 31
0.0
  0
ARC
  5
7C0
330
1E
100
AcDbEntity
  8
0
  6
HIDDEN
100
AcDbCircle
 10
1.948235317366986
 20
-5.904854869149364
 30
0.0
 40
0.1250000000000009
100
AcDbArc
 50
270.0000000000008
 51
0.0
  0
LINE
  5
7C1
330
1E
100
AcDbEntity
  8
0
  6
HIDDEN
100
AcDbLine
 10
2.022235407361554
 20
-5.731854908419141
 30
0.0
 11
2.022235407361554
 21
-5.669854931314834
 31
0.0
  0
LINE
  5
7C2
330
1E
100
AcDbEntity
  8
0
  6
Continuous
100
AcDbLine
 10
1.948235302217083
 20
-5.529854708609352
 30
0.0
 11
1.948235302217083
 21
-5.60785466088058
 31
0.0
  0
LINE
  5
7C3
330
1E
100
AcDbEntity
  8
0
  6
HIDDEN
100
AcDbLine
 10
2.073235218207386
 20
-5.904854749910208
 30
0.0
 11
2.073235218207386
 21
-5.62345512066274
 31
0.0
  0
LINE
  5
7C4
330
1E
100
AcDbEntity
  8
0
  6
Continuous
100
AcDbLine
 10
2.073235218207386
 20
-5.60785466088058
 30
0.0
 11
2.073235218207386
 21
-5.529854708609352
 31
0.0
  0
LINE
  5
7C5
330
1E
100
AcDbEntity
  8
0
  6
HIDDEN
100
AcDbLine
 10
2.073235218207386
 20
-5.62345512066274
 30
0.0
 11
2.073235218207386
 21
-5.60785466088058
 31
0.0
  0
SPLINE
  5
7C6
330
1E
100
AcDbEntity
  8
0
  6
HIDDEN
100
AcDbSpline
210
0.0
220
0.0
230
1.0
 70
    24
 71
     1
 72
     4
 73
     2
 74
     0
 42
0.0000000001
 43
0.0000000001
 40
0.0
 40
0.0
 40
1.0
 40
1.0
 10
2.204235198217773
 20
-5.669854931314834
 30
0.0
 10
2.204235198217773
 20
-5.709854869232136
 30
0.0
  0
LINE
  5
7C7
330
1E
100
AcDbEntity
  8
0
  6
HIDDEN
100
AcDbLine
 10
2.323235343517939
 20
-6.73285478478315
 30
0.0
 11
2.323235343517939
 21
-5.62345512066274
 31
0.0
  0
SPLINE
  5
7C8
330
1E
100
AcDbEntity
  8
0
  6
HIDDEN
100
AcDbSpline
210
0.0
220
0.0
230
1.0
 70
    24
 71
     1
 72
     4
 73
     2
 74
     0
 42
0.0000000001
 43
0.0000000001
 40
0.0
 40
0.0
 40
1.0
 40
1.0
 10
2.466235451568488
 20
-6.125854810231986
 30
0.0
 10
2.466235451568488
 20
-5.709854869232136
 30
0.0
  0
SPLINE
  5
7C9
330
1E
100
AcDbEntity
  8
0
  6
Continuous
100
AcDbSpline
210
0.0
220
0.0
230
1.0
 70
    24
 71
     1
 72
     4
 73
     2
 74
     0
 42
0.0000000001
 43
0.0000000001
 40
0.0
 40
0.0
 40
1.0
 40
1.0
 10
2.466235451568488
 20
-6.298854945052999
 30
0.0
 10
2.466235451568488
 20
-6.125854810231986
 30
0.0
  0
LINE
  5
7CA
330
1E
100
AcDbEntity
  8
0
  6
Continuous
100
AcDbLine
 10
2.293235316747475
 20
-6.298854945052999
 30
0.0
 11
2.466235451568488
 21
-6.298854945052999
 31
0.0
  0
LINE
  5
7CB
330
1E
100
AcDbEntity
  8
0
  6
Continuous
100
AcDbLine
 10
2.323235343517939
 20
-5.60785466088058
 30
0.0
 11
2.323235343517939
 21
-5.529854708609352
 31
0.0
  0
LINE
  5
7CC
330
1E
100
AcDbEntity
  8
0
  6
HIDDEN
100
AcDbLine
 10
2.323235343517939
 20
-5.62345512066274
 30
0.0
 11
2.323235343517939
 21
-5.60785466088058
 31
0.0
  0
LINE
  5
7CD
330
1E
100
AcDbEntity
  8
0
  6
Continuous
100
AcDbLine
 10
2.323235343517939
 20
-5.529854708609352
 30
0.0
 11
2.323235343517939
 21
-5.514254835487085
 31
0.0
  0
SPLINE
  5
7CE
330
1E
100
AcDbEntity
  8
0
  6
HIDDEN
100
AcDbSpline
210
0.0
220
0.0
230
1.0
 70
    24
 71
     1
 72
     4
 73
     2
 74
     0
 42
0.0000000001
 43
0.0000000001
 40
0.0
 40
0.0
 40
1.0
 40
1.0
 10
2.492235337882249
 20
-5.709854869232136
 30
0.0
 10
2.492235337882249
 20
-5.669854931314834
 30
0.0
  0
LINE
  5
7CF
330
1E
100
AcDbEntity
  8
0
  6
HIDDEN
100
AcDbLine
 10
2.659235262018208
 20
-5.932854853117294
 30
0.0
 11
2.772235343298294
 21
-5.819854771837208
 31
0.0
  0
ARC
  5
7D0
330
1E
100
AcDbEntity
  8
0
  6
Continuous
100
AcDbCircle
 10
2.198235317366986
 20
-4.497854869149364
 30
0.0
 40
0.125
100
AcDbArc
 50
0.0
 51
90.0
  0
ARC
  5
7D1
330
1E
100
AcDbEntity
  8
0
  6
Continuous
100
AcDbCircle
 10
1.823235317366986
 20
-4.892854869149363
 30
0.0
 40
0.2185000000000001
100
AcDbArc
 50
0.0000000000002036
 51
179.9999999999998
  0
LINE
  5
7D2
330
1E
100
AcDbEntity
  8
0
  6
Continuous
100
AcDbLine
 10
1.604735377024198
 20
-4.892854707287725
 30
0.0
 11
1.604735377024198
 21
-5.142855125928221
 31
0.0
  0
LINE
  5
7D3
330
1E
100
AcDbEntity
  8
0
  6
Continuous
100
AcDbLine
 10
2.041735395429361
 20
-5.142855125928221
 30
0.0
 11
2.041735395429361
 21
-4.892854707287725
 31
0.0
  0
LINE
  5
7D4
330
1E
100
AcDbEntity
  8
0
  6
Continuous
100
AcDbLine
 10
3.330735264792874
 20
-6.320854984240003
 30
0.0
 11
3.205735348802571
 21
-6.445854900230306
 31
0.0
  0
LINE
  5
7D5
330
1E
100
AcDbEntity
  8
0
  6
Continuous
100
AcDbLine
 10
3.205735348802571
 20
-6.445854900230306
 30
0.0
 11
3.205735348802571
 21
-6.730854861219771
 31
0.0
  0
LINE
  5
7D6
330
1E
100
AcDbEntity
  8
0
  6
HIDDEN
100
AcDbLine
 10
2.922235330485641
 20
-5.731854908419141
 30
0.0
 11
2.922235330485641
 21
-5.669854931314834
 31
0.0
  0
CIRCLE
  5
7D7
330
1E
100
AcDbEntity
  8
0
  6
Continuous
100
AcDbCircle
 10
5.525735317366988
 20
-7.10785486914966
 30
0.0
 40
0.1249999999999991
  0
CIRCLE
  5
7D8
330
1E
100
AcDbEntity
  8
0
  6
Continuous
100
AcDbCircle
 10
4.540735317366987
 20
-7.10785486914966
 30
0.0
 40
0.125
  0
CIRCLE
  5
7D9
330
1E
100
AcDbEntity
  8
0
  6
Continuous
100
AcDbCircle
 10
6.509735317366988
 20
-7.10785486914966
 30
0.0
 40
0.1720000000000006
  0
LINE
  5
7DA
330
1E
100
AcDbEntity
  8
0
  6
Continuous
100
AcDbLine
 10
2.323235343517939
 20
-0.3059789992505095
 30
0.0
 11
2.323235343517939
 21
-1.315979118309613
 31
0.0
  0
ARC
  5
7DB
330
1E
100
AcDbEntity
  8
0
  6
Continuous
100
AcDbCircle
 10
1.823235317366991
 20
-0.920979092853452
 30
0.0
 40
0.2185000000000004
100
AcDbArc
 50
180.0
 51
0.0
  0
ARC
  5
7DC
330
1E
100
AcDbEntity
  8
0
  6
Continuous
100
AcDbCircle
 10
2.198235317366991
 20
-1.315979092853451
 30
0.0
 40
0.1250000000000004
100
AcDbArc
 50
270.0000000000008
 51
0.0
  0
CIRCLE
  5
7DD
330
1E
100
AcDbEntity
  8
0
  6
Continuous
100
AcDbCircle
 10
1.816235317366984
 20
0.5370209071467436
 30
0.0
 40
0.207113562990759
  0
CIRCLE
  5
7DE
330
1E
100
AcDbEntity
  8
0
  6
Continuous
100
AcDbCircle
 10
1.816235317366984
 20
0.5370209071467436
 30
0.0
 40
0.2099999999999999
  0
CIRCLE
  5
7DF
330
1E
100
AcDbEntity
  8
0
  6
Continuous
100
AcDbCircle
 10
1.816235317366984
 20
0.5370209071467436
 30
0.0
 40
0.1792913385826773
  0
LINE
  5
7E0
330
1E
100
AcDbEntity
  8
0
  6
Continuous
100
AcDbLine
 10
1.861165881383795
 20
0.4582270525759676
 30
0.0
 11
1.838397024411573
 21
0.5260047496022296
 31
0.0
  0
LINE
  5
7E1
330
1E
100
AcDbEntity
  8
0
  6
Continuous
100
AcDbLine
 10
1.737441363993312
 20
0.4920902347189298
 30
0.0
 11
1.805219061019572
 21
0.5148590916911538
 31
0.0
  0
LINE
  5
7E2
330
1E
100
AcDbEntity
  8
0
  6
Continuous
100
AcDbLine
 10
1.726295706082236
 20
0.5252681981109327
 30
0.0
 11
1.737441363993312
 21
0.4920902347189298
 31
0.0
  0
LINE
  5
7E3
330
1E
100
AcDbEntity
  8
0
  6
Continuous
100
AcDbLine
 10
1.805219061019572
 20
0.5148590916911538
 30
0.0
 11
1.827987917991793
 21
0.4470813946648918
 31
0.0
  0
ARC
  5
7E4
330
1E
100
AcDbEntity
  8
0
  6
Continuous
100
AcDbCircle
 10
1.823235317366991
 20
-0.6709790928534538
 30
0.0
 40
0.2185000000000006
100
AcDbArc
 50
0.0
 51
180.0
  0
LINE
  5
7E5
330
1E
100
AcDbEntity
  8
0
  6
Continuous
100
AcDbLine
 10
1.604735377024198
 20
-0.6709788360745819
 30
0.0
 11
1.604735377024198
 21
-0.9209792547150783
 31
0.0
  0
LINE
  5
7E6
330
1E
100
AcDbEntity
  8
0
  6
Continuous
100
AcDbLine
 10
2.041735395429361
 20
-0.9209792547150783
 30
0.0
 11
2.041735395429361
 21
-0.6709788360745819
 31
0.0
  0
LINE
  5
7E7
330
1E
100
AcDbEntity
  8
0
  6
Continuous
100
AcDbLine
 10
1.827987917991793
 20
0.4470813946648918
 30
0.0
 11
1.861165881383795
 21
0.4582270525759676
 31
0.0
  0
LINE
  5
7E8
330
1E
100
AcDbEntity
  8
0
  6
Continuous
100
AcDbLine
 10
1.771304546136274
 20
0.6158147521094151
 30
0.0
 11
1.794073403108496
 21
0.5480370550831566
 31
0.0
  0
LINE
  5
7E9
330
1E
100
AcDbEntity
  8
0
  6
Continuous
100
AcDbLine
 10
1.827251366500499
 20
0.5591827129942289
 30
0.0
 11
1.804482509528277
 21
0.6269604100204909
 31
0.0
  0
LINE
  5
7EA
330
1E
100
AcDbEntity
  8
0
  6
Continuous
100
AcDbLine
 10
1.838397024411573
 20
0.5260047496022296
 30
0.0
 11
1.906175014767779
 21
0.54877360657445
 31
0.0
  0
LINE
  5
7EB
330
1E
100
AcDbEntity
  8
0
  6
Continuous
100
AcDbLine
 10
1.895029356856703
 20
0.5819515699664528
 30
0.0
 11
1.827251366500499
 21
0.5591827129942289
 31
0.0
  0
LINE
  5
7EC
330
1E
100
AcDbEntity
  8
0
  6
Continuous
100
AcDbLine
 10
1.794073403108496
 20
0.5480370550831566
 30
0.0
 11
1.726295706082236
 21
0.5252681981109327
 31
0.0
  0
LINE
  5
7ED
330
1E
100
AcDbEntity
  8
0
  6
Continuous
100
AcDbLine
 10
1.906175014767779
 20
0.54877360657445
 30
0.0
 11
1.895029356856703
 21
0.5819515699664528
 31
0.0
  0
LINE
  5
7EE
330
1E
100
AcDbEntity
  8
0
  6
Continuous
100
AcDbLine
 10
1.804482509528277
 20
0.6269604100204909
 30
0.0
 11
1.771304546136274
 21
0.6158147521094151
 31
0.0
  0
MTEXT
  5
7EF
330
1E
100
AcDbEntity
  8
0
  6
Continuous
100
AcDbMText
 10
5.396650776504671
 20
-1.768612732311208
 30
0.0
 40
0.5
 41
0.0
 71
     1
 72
     1
  1
A
  7
SLDTEXTSTYLE0
 73
     1
 44
1.0
  0
LINE
  5
7F0
330
1E
100
AcDbEntity
  8
0
  6
Continuous
100
AcDbLine
 10
6.512652062942549
 20
-2.165560239205335
 30
0.0
 11
6.040211118060661
 21
-2.165560239205335
 31
0.0
  0
SOLID
  5
7F1
330
1E
100
AcDbEntity
  8
0
  6
Continuous
100
AcDbTrace
 10
6.040211118060661
 20
-2.165560239205335
 30
0.0
 11
6.276431590501605
 21
-2.224615357315572
 31
0.0
 12
6.276431590501605
 22
-2.1065051210951
 32
0.0
 13
6.276431590501605
 23
-2.1065051210951
 33
0.0
  0
LINE
  5
7F2
330
1E
100
AcDbEntity
  8
0
  6
HIDDEN
100
AcDbLine
 10
-3.603071900288955
 20
9.622020844981435
 30
0.0
 11
-9.346071814163881
 21
9.622020844981435
 31
0.0
  0
SPLINE
  5
7F3
330
1E
100
AcDbEntity
  8
0
  6
HIDDEN
100
AcDbSpline
210
0.0
220
0.0
230
1.0
 70
    24
 71
     1
 72
     4
 73
     2
 74
     0
 42
0.0000000001
 43
0.0000000001
 40
0.0
 40
0.0
 40
1.0
 40
1.0
 10
-3.823071705499101
 20
8.843020990720891
 30
0.0
 10
-3.448071664198244
 20
8.843020990720891
 30
0.0
  0
SPLINE
  5
7F4
330
1E
100
AcDbEntity
  8
0
  6
HIDDEN
100
AcDbSpline
210
0.0
220
0.0
230
1.0
 70
    24
 71
     1
 72
     4
 73
     2
 74
     0
 42
0.0000000001
 43
0.0000000001
 40
0.0
 40
0.0
 40
1.0
 40
1.0
 10
-3.448071664198244
 20
9.03902083318065
 30
0.0
 10
-3.823071705499101
 20
9.03902083318065
 30
0.0
  0
LINE
  5
7F5
330
1E
100
AcDbEntity
  8
0
  6
HIDDEN
100
AcDbLine
 10
-3.83007173130087
 20
9.222020879148505
 30
0.0
 11
-3.580071899320262
 21
9.222020879148505
 31
0.0
  0
LINE
  5
7F6
330
1E
100
AcDbEntity
  8
0
  6
HIDDEN
100
AcDbLine
 10
-3.83007173130087
 20
9.222020879148505
 30
0.0
 11
-3.580071899320262
 21
9.222020879148505
 31
0.0
  0
LINE
  5
7F7
330
1E
100
AcDbEntity
  8
0
  6
Continuous
100
AcDbLine
 10
-4.208071951276738
 20
9.784020813543975
 30
0.0
 11
-3.595071619375548
 21
9.784020813543975
 31
0.0
  0
LINE
  5
7F8
330
1E
100
AcDbEntity
  8
0
  6
HIDDEN
100
AcDbLine
 10
-4.208071951276739
 20
9.684021115415685
 30
0.0
 11
-3.618071620344242
 21
9.684021115415685
 31
0.0
  0
LINE
  5
7F9
330
1E
100
AcDbEntity
  8
0
  6
HIDDEN
100
AcDbLine
 10
-3.830071731300868
 20
9.722020836439664
 30
0.0
 11
-3.580071899320261
 21
9.722020836439664
 31
0.0
  0
LINE
  5
7FA
330
1E
100
AcDbEntity
  8
0
  6
HIDDEN
100
AcDbLine
 10
-3.830071731300868
 20
9.722020836439664
 30
0.0
 11
-3.580071899320261
 21
9.722020836439664
 31
0.0
  0
LINE
  5
7FB
330
1E
100
AcDbEntity
  8
0
  6
Continuous
100
AcDbLine
 10
-9.346071814163881
 20
9.684021115415685
 30
0.0
 11
-4.208071951276739
 21
9.684021115415685
 31
0.0
  0
SPLINE
  5
7FC
330
1E
100
AcDbEntity
  8
0
  6
HIDDEN
100
AcDbSpline
210
0.0
220
0.0
230
1.0
 70
    24
 71
     1
 72
     4
 73
     2
 74
     0
 42
0.0000000001
 43
0.0000000001
 40
0.0
 40
0.0
 40
1.0
 40
1.0
 10
-8.986071832081064
 20
8.026520956332298
 30
0.0
 10
-8.357071781676655
 20
8.026520956332298
 30
0.0
  0
SPLINE
  5
7FD
330
1E
100
AcDbEntity
  8
0
  6
HIDDEN
100
AcDbSpline
210
0.0
220
0.0
230
1.0
 70
    24
 71
     1
 72
     4
 73
     2
 74
     0
 42
0.0000000001
 43
0.0000000001
 40
0.0
 40
0.0
 40
1.0
 40
1.0
 10
-8.357071781676655
 20
8.341520944092223
 30
0.0
 10
-8.986071832081064
 20
8.341520944092223
 30
0.0
  0
SPLINE
  5
7FE
330
1E
100
AcDbEntity
  8
0
  6
HIDDEN
100
AcDbSpline
210
0.0
220
0.0
230
1.0
 70
    24
 71
     1
 72
     4
 73
     2
 74
     0
 42
0.0000000001
 43
0.0000000001
 40
0.0
 40
0.0
 40
1.0
 40
1.0
 10
-8.986071832081064
 20
2.09502105085869
 30
0.0
 10
-8.90807180647735
 20
2.09502105085869
 30
0.0
  0
SPLINE
  5
7FF
330
1E
100
AcDbEntity
  8
0
  6
HIDDEN
100
AcDbSpline
210
0.0
220
0.0
230
1.0
 70
    24
 71
     1
 72
     4
 73
     2
 74
     0
 42
0.0000000001
 43
0.0000000001
 40
0.0
 40
0.0
 40
1.0
 40
1.0
 10
-8.90807180647735
 20
2.439020956942421
 30
0.0
 10
-8.986071832081064
 20
2.439020956942421
 30
0.0
  0
SPLINE
  5
800
330
1E
100
AcDbEntity
  8
0
  6
HIDDEN
100
AcDbSpline
210
0.0
220
0.0
230
1.0
 70
    24
 71
     1
 72
     4
 73
     2
 74
     0
 42
0.0000000001
 43
0.0000000001
 40
0.0
 40
0.0
 40
1.0
 40
1.0
 10
-8.986071832081064
 20
3.126020953993165
 30
0.0
 10
-8.90807180647735
 20
3.126020953993165
 30
0.0
  0
SPLINE
  5
801
330
1E
100
AcDbEntity
  8
0
  6
HIDDEN
100
AcDbSpline
210
0.0
220
0.0
230
1.0
 70
    24
 71
     1
 72
     4
 73
     2
 74
     0
 42
0.0000000001
 43
0.0000000001
 40
0.0
 40
0.0
 40
1.0
 40
1.0
 10
-8.90807180647735
 20
3.376020932638745
 30
0.0
 10
-8.986071832081064
 20
3.376020932638745
 30
0.0
  0
SPLINE
  5
802
330
1E
100
AcDbEntity
  8
0
  6
HIDDEN
100
AcDbSpline
210
0.0
220
0.0
230
1.0
 70
    24
 71
     1
 72
     4
 73
     2
 74
     0
 42
0.0000000001
 43
0.0000000001
 40
0.0
 40
0.0
 40
1.0
 40
1.0
 10
-8.986071832081064
 20
6.102020881654716
 30
0.0
 10
-8.90807180647735
 20
6.102020881654716
 30
0.0
  0
SPLINE
  5
803
330
1E
100
AcDbEntity
  8
0
  6
HIDDEN
100
AcDbSpline
210
0.0
220
0.0
230
1.0
 70
    24
 71
     1
 72
     4
 73
     2
 74
     0
 42
0.0000000001
 43
0.0000000001
 40
0.0
 40
0.0
 40
1.0
 40
1.0
 10
-8.90807180647735
 20
6.352020860300296
 30
0.0
 10
-8.986071832081064
 20
6.352020860300296
 30
0.0
  0
SPLINE
  5
804
330
1E
100
AcDbEntity
  8
0
  6
HIDDEN
100
AcDbSpline
210
0.0
220
0.0
230
1.0
 70
    24
 71
     1
 72
     4
 73
     2
 74
     0
 42
0.0000000001
 43
0.0000000001
 40
0.0
 40
0.0
 40
1.0
 40
1.0
 10
-8.986071832081064
 20
7.03902085735104
 30
0.0
 10
-8.90807180647735
 20
7.03902085735104
 30
0.0
  0
SPLINE
  5
805
330
1E
100
AcDbEntity
  8
0
  6
HIDDEN
100
AcDbSpline
210
0.0
220
0.0
230
1.0
 70
    24
 71
     1
 72
     4
 73
     2
 74
     0
 42
0.0000000001
 43
0.0000000001
 40
0.0
 40
0.0
 40
1.0
 40
1.0
 10
-8.90807180647735
 20
7.383020763434771
 30
0.0
 10
-8.986071832081064
 20
7.383020763434771
 30
0.0
  0
LINE
  5
806
330
1E
100
AcDbEntity
  8
0
  6
Continuous
100
AcDbLine
 10
-9.795071823110795
 20
9.777620940809182
 30
0.0
 11
-9.795071823110795
 21
10.79402093260307
 31
0.0
  0
LINE
  5
807
330
1E
100
AcDbEntity
  8
0
  6
Continuous
100
AcDbLine
 10
-9.873071812048268
 20
9.777620940809182
 30
0.0
 11
-9.873071812048268
 21
10.79402093260307
 31
0.0
  0
LINE
  5
808
330
1E
100
AcDbEntity
  8
0
  6
Continuous
100
AcDbLine
 10
-9.501071811924013
 20
8.559020991513115
 30
0.0
 11
-9.501071811924013
 21
9.668420655633525
 31
0.0
  0
LINE
  5
809
330
1E
100
AcDbEntity
  8
0
  6
Continuous
100
AcDbLine
 10
-9.501071811924013
 20
8.434020782192867
 30
0.0
 11
-9.501071811924013
 21
8.559020991513115
 31
0.0
  0
LINE
  5
80A
330
1E
100
AcDbEntity
  8
0
  6
HIDDEN
100
AcDbLine
 10
-8.90807180647735
 20
8.561020915076497
 30
0.0
 11
-8.90807180647735
 21
8.327020764932864
 31
0.0
  0
LINE
  5
80B
330
1E
100
AcDbEntity
  8
0
  6
HIDDEN
100
AcDbLine
 10
-8.986071832081066
 20
8.561020915076497
 30
0.0
 11
-8.986071832081066
 21
8.464020808963333
 31
0.0
  0
SPLINE
  5
80C
330
1E
100
AcDbEntity
  8
0
  6
HIDDEN
100
AcDbSpline
210
0.0
220
0.0
230
1.0
 70
    24
 71
     1
 72
     4
 73
     2
 74
     0
 42
0.0000000001
 43
0.0000000001
 40
0.0
 40
0.0
 40
1.0
 40
1.0
 10
-9.361071813799275
 20
7.904020798131242
 30
0.0
 10
-8.986071832081064
 20
7.904020798131242
 30
0.0
  0
SPLINE
  5
80D
330
1E
100
AcDbEntity
  8
0
  6
HIDDEN
100
AcDbSpline
210
0.0
220
0.0
230
1.0
 70
    24
 71
     1
 72
     4
 73
     2
 74
     0
 42
0.0000000001
 43
0.0000000001
 40
0.0
 40
0.0
 40
1.0
 40
1.0
 10
-8.986071832081064
 20
8.464020808963333
 30
0.0
 10
-9.361071813799275
 20
8.464020808963333
 30
0.0
  0
LINE
  5
80E
330
1E
100
AcDbEntity
  8
0
  6
Continuous
100
AcDbLine
 10
-9.42307181381998
 20
8.434020782192867
 30
0.0
 11
-9.501071811924013
 21
8.434020782192867
 31
0.0
  0
LINE
  5
80F
330
1E
100
AcDbEntity
  8
0
  6
HIDDEN
100
AcDbLine
 10
-8.908071806477348
 20
8.327020764932864
 30
0.0
 11
-8.908071806477348
 21
8.202020848942559
 31
0.0
  0
LINE
  5
810
330
1E
100
AcDbEntity
  8
0
  6
HIDDEN
100
AcDbLine
 10
-8.986071832081062
 20
8.202020848942559
 30
0.0
 11
-8.986071832081064
 21
8.327020764932864
 31
0.0
  0
SPLINE
  5
811
330
1E
100
AcDbEntity
  8
0
  6
HIDDEN
100
AcDbSpline
210
0.0
220
0.0
230
1.0
 70
    24
 71
     1
 72
     4
 73
     2
 74
     0
 42
0.0000000001
 43
0.0000000001
 40
0.0
 40
0.0
 40
1.0
 40
1.0
 10
-8.986071832081064
 20
7.987020852640863
 30
0.0
 10
-8.90807180647735
 20
7.987020852640863
 30
0.0
  0
SPLINE
  5
812
330
1E
100
AcDbEntity
  8
0
  6
HIDDEN
100
AcDbSpline
210
0.0
220
0.0
230
1.0
 70
    24
 71
     1
 72
     4
 73
     2
 74
     0
 42
0.0000000001
 43
0.0000000001
 40
0.0
 40
0.0
 40
1.0
 40
1.0
 10
-8.986071832081067
 20
8.012020777172935
 30
0.0
 10
-8.908071806477353
 20
8.012020777172935
 30
0.0
  0
SPLINE
  5
813
330
1E
100
AcDbEntity
  8
0
  6
HIDDEN
100
AcDbSpline
210
0.0
220
0.0
230
1.0
 70
    24
 71
     1
 72
     4
 73
     2
 74
     0
 42
0.0000000001
 43
0.0000000001
 40
0.0
 40
0.0
 40
1.0
 40
1.0
 10
-8.986071832081071
 20
8.059021034221956
 30
0.0
 10
-8.908071806477357
 20
8.059021034221956
 30
0.0
  0
LINE
  5
814
330
1E
100
AcDbEntity
  8
0
  6
HIDDEN
100
AcDbLine
 10
-8.908071806477348
 20
8.202020848942559
 30
0.0
 11
-8.986071832081062
 21
8.202020848942559
 31
0.0
  0
LINE
  5
815
330
1E
100
AcDbEntity
  8
0
  6
HIDDEN
100
AcDbLine
 10
-8.986071832081064
 20
8.327020764932864
 30
0.0
 11
-8.986071832081064
 21
8.464020808963333
 31
0.0
  0
LINE
  5
816
330
1E
100
AcDbEntity
  8
0
  6
HIDDEN
100
AcDbLine
 10
-8.986071832081064
 20
8.327020764932864
 30
0.0
 11
-8.908071806477348
 21
8.327020764932864
 31
0.0
  0
SPLINE
  5
817
330
1E
100
AcDbEntity
  8
0
  6
HIDDEN
100
AcDbSpline
210
0.0
220
0.0
230
1.0
 70
    24
 71
     1
 72
     4
 73
     2
 74
     0
 42
0.0000000001
 43
0.0000000001
 40
0.0
 40
0.0
 40
1.0
 40
1.0
 10
-8.908071806477353
 20
8.356020829921639
 30
0.0
 10
-8.986071832081067
 20
8.356020829921639
 30
0.0
  0
SPLINE
  5
818
330
1E
100
AcDbEntity
  8
0
  6
HIDDEN
100
AcDbSpline
210
0.0
220
0.0
230
1.0
 70
    24
 71
     1
 72
     4
 73
     2
 74
     0
 42
0.0000000001
 43
0.0000000001
 40
0.0
 40
0.0
 40
1.0
 40
1.0
 10
-8.908071806477357
 20
8.309020866202565
 30
0.0
 10
-8.986071832081071
 20
8.309020866202565
 30
0.0
  0
SPLINE
  5
819
330
1E
100
AcDbEntity
  8
0
  6
HIDDEN
100
AcDbSpline
210
0.0
220
0.0
230
1.0
 70
    24
 71
     1
 72
     4
 73
     2
 74
     0
 42
0.0000000001
 43
0.0000000001
 40
0.0
 40
0.0
 40
1.0
 40
1.0
 10
-9.501071811924015
 20
8.690520805749372
 30
0.0
 10
-9.423071813819982
 20
8.690520805749372
 30
0.0
  0
SPLINE
  5
81A
330
1E
100
AcDbEntity
  8
0
  6
HIDDEN
100
AcDbSpline
210
0.0
220
0.0
230
1.0
 70
    24
 71
     1
 72
     4
 73
     2
 74
     0
 42
0.0000000001
 43
0.0000000001
 40
0.0
 40
0.0
 40
1.0
 40
1.0
 10
-9.423071813819982
 20
8.712021010710508
 30
0.0
 10
-9.361071813799274
 20
8.712021010710508
 30
0.0
  0
SPLINE
  5
81B
330
1E
100
AcDbEntity
  8
0
  6
HIDDEN
100
AcDbSpline
210
0.0
220
0.0
230
1.0
 70
    24
 71
     1
 72
     4
 73
     2
 74
     0
 42
0.0000000001
 43
0.0000000001
 40
0.0
 40
0.0
 40
1.0
 40
1.0
 10
-9.423071813819982
 20
9.127520824154537
 30
0.0
 10
-9.501071811924015
 20
9.127520824154537
 30
0.0
  0
SPLINE
  5
81C
330
1E
100
AcDbEntity
  8
0
  6
HIDDEN
100
AcDbSpline
210
0.0
220
0.0
230
1.0
 70
    24
 71
     1
 72
     4
 73
     2
 74
     0
 42
0.0000000001
 43
0.0000000001
 40
0.0
 40
0.0
 40
1.0
 40
1.0
 10
-9.361071813799274
 20
9.106020912523351
 30
0.0
 10
-9.423071813819982
 20
9.106020912523351
 30
0.0
  0
LINE
  5
81D
330
1E
100
AcDbEntity
  8
0
  6
HIDDEN
100
AcDbLine
 10
-9.501071811924015
 20
9.26202081706581
 30
0.0
 11
-9.423071813819982
 21
9.26202081706581
 31
0.0
  0
LINE
  5
81E
330
1E
100
AcDbEntity
  8
0
  6
HIDDEN
100
AcDbLine
 10
-8.908071806477352
 20
8.971020792056265
 30
0.0
 11
-8.908071806477352
 21
8.84602087606596
 31
0.0
  0
LINE
  5
81F
330
1E
100
AcDbEntity
  8
0
  6
HIDDEN
100
AcDbLine
 10
-8.986071832081067
 20
8.84602087606596
 30
0.0
 11
-8.986071832081067
 21
8.971020792056265
 31
0.0
  0
LINE
  5
820
330
1E
100
AcDbEntity
  8
0
  6
HIDDEN
100
AcDbLine
 10
-8.908071806477352
 20
8.84602087606596
 30
0.0
 11
-8.908071806477352
 21
8.561020915076497
 31
0.0
  0
LINE
  5
821
330
1E
100
AcDbEntity
  8
0
  6
HIDDEN
100
AcDbLine
 10
-8.986071832081067
 20
8.84602087606596
 30
0.0
 11
-8.986071832081067
 21
8.561020915076497
 31
0.0
  0
LINE
  5
822
330
1E
100
AcDbEntity
  8
0
  6
HIDDEN
100
AcDbLine
 10
-8.986071832081066
 20
8.561020915076497
 30
0.0
 11
-8.90807180647735
 21
8.561020915076497
 31
0.0
  0
LINE
  5
823
330
1E
100
AcDbEntity
  8
0
  6
HIDDEN
100
AcDbLine
 10
-8.908071806477352
 20
8.84602087606596
 30
0.0
 11
-8.986071832081067
 21
8.84602087606596
 31
0.0
  0
LINE
  5
824
330
1E
100
AcDbEntity
  8
0
  6
HIDDEN
100
AcDbLine
 10
-8.986071832081067
 20
8.971020792056265
 30
0.0
 11
-8.908071806477352
 21
8.971020792056265
 31
0.0
  0
LINE
  5
825
330
1E
100
AcDbEntity
  8
0
  6
Continuous
100
AcDbLine
 10
-9.516671813378135
 20
9.762021067686916
 30
0.0
 11
-9.298071815330631
 21
9.762021067686916
 31
0.0
  0
ARC
  5
826
330
1E
100
AcDbEntity
  8
0
  6
Continuous
100
AcDbCircle
 10
-9.51667181381998
 20
9.668420907146902
 30
0.0
 40
0.0936000000000004
100
AcDbArc
 50
0.0000000000002036
 51
90.0
  0
LINE
  5
827
330
1E
100
AcDbEntity
  8
0
  6
HIDDEN
100
AcDbLine
 10
-9.516671813378135
 20
9.684021115415685
 30
0.0
 11
-9.424380969139217
 21
9.684021115415685
 31
0.0
  0
ARC
  5
828
330
1E
100
AcDbEntity
  8
0
  6
Continuous
100
AcDbCircle
 10
-9.51667181381998
 20
9.668420907146902
 30
0.0
 40
0.0155999999999992
100
AcDbArc
 50
0.0000000000016284
 51
90.0
  0
ARC
  5
829
330
1E
100
AcDbEntity
  8
0
  6
Continuous
100
AcDbCircle
 10
-9.779471813819981
 20
9.777620907146904
 30
0.0
 40
0.0936000000000004
100
AcDbArc
 50
179.9999999999998
 51
270.0000000000008
  0
SPLINE
  5
82A
330
1E
100
AcDbEntity
  8
0
  6
HIDDEN
100
AcDbSpline
210
0.0
220
0.0
230
1.0
 70
    24
 71
     1
 72
     4
 73
     2
 74
     0
 42
0.0000000001
 43
0.0000000001
 40
0.0
 40
0.0
 40
1.0
 40
1.0
 10
-9.873071812048269
 20
9.930520934495405
 30
0.0
 10
-9.795071823110799
 20
9.930520934495405
 30
0.0
  0
LINE
  5
82B
330
1E
100
AcDbEntity
  8
0
  6
Continuous
100
AcDbLine
 10
-9.516671813378131
 20
9.684021115415685
 30
0.0
 11
-9.779471803323556
 21
9.684021115415685
 31
0.0
  0
LINE
  5
82C
330
1E
100
AcDbEntity
  8
0
  6
Continuous
100
AcDbLine
 10
-9.516671813378131
 20
9.762021067686916
 30
0.0
 11
-9.779471803323556
 21
9.762021067686916
 31
0.0
  0
ARC
  5
82D
330
1E
100
AcDbEntity
  8
0
  6
Continuous
100
AcDbCircle
 10
-9.779471813819981
 20
9.777620907146904
 30
0.0
 40
0.015600000000001
100
AcDbArc
 50
180.0
 51
270.0000000000008
  0
SPLINE
  5
82E
330
1E
100
AcDbEntity
  8
0
  6
HIDDEN
100
AcDbSpline
210
0.0
220
0.0
230
1.0
 70
    24
 71
     1
 72
     4
 73
     2
 74
     0
 42
0.0000000001
 43
0.0000000001
 40
0.0
 40
0.0
 40
1.0
 40
1.0
 10
-9.641571804689442
 20
9.762021067686916
 30
0.0
 10
-9.641571804689442
 20
9.684021115415685
 30
0.0
  0
SPLINE
  5
82F
330
1E
100
AcDbEntity
  8
0
  6
HIDDEN
100
AcDbSpline
210
0.0
220
0.0
230
1.0
 70
    24
 71
     1
 72
     4
 73
     2
 74
     0
 42
0.0000000001
 43
0.0000000001
 40
0.0
 40
0.0
 40
1.0
 40
1.0
 10
-9.795071823110799
 20
10.61752078488118
 30
0.0
 10
-9.873071812048269
 20
10.61752078488118
 30
0.0
  0
LINE
  5
830
330
1E
100
AcDbEntity
  8
0
  6
Continuous
100
AcDbLine
 10
-9.298071815330631
 20
9.762021067686916
 30
0.0
 11
-9.173071816841281
 21
9.762021067686916
 31
0.0
  0
ARC
  5
831
330
1E
100
AcDbEntity
  8
0
  6
Continuous
100
AcDbCircle
 10
-9.346071813819982
 20
9.607020907146733
 30
0.0
 40
0.0770000027005722
100
AcDbArc
 50
90.00000000018767
 51
179.9999999999871
  0
LINE
  5
832
330
1E
100
AcDbEntity
  8
0
  6
Continuous
100
AcDbLine
 10
-9.42307181381998
 20
9.607020831596202
 30
0.0
 11
-9.42307181381998
 21
9.668420655633525
 31
0.0
  0
LINE
  5
833
330
1E
100
AcDbEntity
  8
0
  6
Continuous
100
AcDbLine
 10
-9.424380969139217
 20
9.684021115415685
 30
0.0
 11
-9.346071814163883
 21
9.684021115415685
 31
0.0
  0
ARC
  5
834
330
1E
100
AcDbEntity
  8
0
  6
HIDDEN
100
AcDbCircle
 10
-9.346071812469695
 20
9.607020907144367
 30
0.0
 40
0.0150000040508598
100
AcDbArc
 50
90.00001817365209
 51
179.9999999909621
  0
LINE
  5
835
330
1E
100
AcDbEntity
  8
0
  6
Continuous
100
AcDbLine
 10
-9.173071816841281
 20
9.684021115415685
 30
0.0
 11
-9.173071816841281
 21
9.762021067686916
 31
0.0
  0
LINE
  5
836
330
1E
100
AcDbEntity
  8
0
  6
Continuous
100
AcDbLine
 10
-9.873071812048268
 20
10.91902114192332
 30
0.0
 11
-9.795071823110795
 21
10.91902114192332
 31
0.0
  0
LINE
  5
837
330
1E
100
AcDbEntity
  8
0
  6
Continuous
100
AcDbLine
 10
-9.873071812048268
 20
10.79402093260307
 30
0.0
 11
-9.873071812048268
 21
10.91902114192332
 31
0.0
  0
LINE
  5
838
330
1E
100
AcDbEntity
  8
0
  6
Continuous
100
AcDbLine
 10
-9.795071823110795
 20
10.91902114192332
 30
0.0
 11
-9.795071823110795
 21
10.79402093260307
 31
0.0
  0
LINE
  5
839
330
1E
100
AcDbEntity
  8
0
  6
HIDDEN
100
AcDbLine
 10
-8.357071781676655
 20
8.026520956332298
 30
0.0
 11
-8.357071781676655
 21
8.341520944092223
 31
0.0
  0
LINE
  5
83A
330
1E
100
AcDbEntity
  8
0
  6
HIDDEN
100
AcDbLine
 10
-4.978071856172134
 20
8.993020831243267
 30
0.0
 11
-4.860071672653657
 21
8.993020831243267
 31
0.0
  0
LINE
  5
83B
330
1E
100
AcDbEntity
  8
0
  6
HIDDEN
100
AcDbLine
 10
-4.978071856172134
 20
9.58202090706413
 30
0.0
 11
-4.834071786339896
 21
9.58202090706413
 31
0.0
  0
SPLINE
  5
83C
330
1E
100
AcDbEntity
  8
0
  6
HIDDEN
100
AcDbSpline
210
0.0
220
0.0
230
1.0
 70
    24
 71
     1
 72
     4
 73
     2
 74
     0
 42
0.0000000001
 43
0.0000000001
 40
0.0
 40
0.0
 40
1.0
 40
1.0
 10
-5.096071746360668
 20
9.58202090706413
 30
0.0
 10
-5.096071746360668
 20
8.993020831243267
 30
0.0
  0
LINE
  5
83D
330
1E
100
AcDbEntity
  8
0
  6
HIDDEN
100
AcDbLine
 10
-5.096071746360668
 20
8.993020831243267
 30
0.0
 11
-4.978071856172134
 21
8.993020831243267
 31
0.0
  0
LINE
  5
83E
330
1E
100
AcDbEntity
  8
0
  6
HIDDEN
100
AcDbLine
 10
-5.122071926004374
 20
9.58202090706413
 30
0.0
 11
-4.978071856172134
 21
9.58202090706413
 31
0.0
  0
SPLINE
  5
83F
330
1E
100
AcDbEntity
  8
0
  6
HIDDEN
100
AcDbSpline
210
0.0
220
0.0
230
1.0
 70
    24
 71
     1
 72
     4
 73
     2
 74
     0
 42
0.0000000001
 43
0.0000000001
 40
0.0
 40
0.0
 40
1.0
 40
1.0
 10
-5.122071926004374
 20
9.622020844981435
 30
0.0
 10
-5.122071926004374
 20
9.58202090706413
 30
0.0
  0
SPLINE
  5
840
330
1E
100
AcDbEntity
  8
0
  6
HIDDEN
100
AcDbSpline
210
0.0
220
0.0
230
1.0
 70
    24
 71
     1
 72
     4
 73
     2
 74
     0
 42
0.0000000001
 43
0.0000000001
 40
0.0
 40
0.0
 40
1.0
 40
1.0
 10
-4.860071672653657
 20
8.993020831243267
 30
0.0
 10
-4.860071672653657
 20
9.58202090706413
 30
0.0
  0
LINE
  5
841
330
1E
100
AcDbEntity
  8
0
  6
HIDDEN
100
AcDbLine
 10
-3.853071732269564
 20
9.472021004459058
 30
0.0
 11
-3.853071732269562
 21
8.910020776733645
 31
0.0
  0
LINE
  5
842
330
1E
100
AcDbEntity
  8
0
  6
HIDDEN
100
AcDbLine
 10
-3.791071755165257
 20
9.472021004459058
 30
0.0
 11
-3.791071755165255
 21
8.910020776733645
 31
0.0
  0
LINE
  5
843
330
1E
100
AcDbEntity
  8
0
  6
HIDDEN
100
AcDbLine
 10
-3.941071889017575
 20
7.86002101308718
 30
0.0
 11
-4.491071988702824
 21
7.86002101308718
 31
0.0
  0
LINE
  5
844
330
1E
100
AcDbEntity
  8
0
  6
HIDDEN
100
AcDbLine
 10
-3.941071889017575
 20
8.760020936211269
 30
0.0
 11
-4.491071988702824
 21
8.760020936211269
 31
0.0
  0
LINE
  5
845
330
1E
100
AcDbEntity
  8
0
  6
HIDDEN
100
AcDbLine
 10
-4.591071686831111
 20
8.660020944753036
 30
0.0
 11
-4.591071686831111
 21
7.960021004545414
 31
0.0
  0
ARC
  5
846
330
1E
100
AcDbEntity
  8
0
  6
HIDDEN
100
AcDbCircle
 10
-4.491071813819969
 20
7.960020907146493
 30
0.0
 40
0.1000000000000005
100
AcDbArc
 50
179.9999999999993
 51
270.0000000000008
  0
ARC
  5
847
330
1E
100
AcDbEntity
  8
0
  6
HIDDEN
100
AcDbCircle
 10
-4.491071813819969
 20
8.660020907146492
 30
0.0
 40
0.0999999999999997
100
AcDbArc
 50
90.0
 51
179.9999999999993
  0
LINE
  5
848
330
1E
100
AcDbEntity
  8
0
  6
HIDDEN
100
AcDbLine
 10
-3.791071755165255
 20
8.910020776733645
 30
0.0
 11
-3.791071755165255
 21
8.010020853609557
 31
0.0
  0
LINE
  5
849
330
1E
100
AcDbEntity
  8
0
  6
HIDDEN
100
AcDbLine
 10
-3.853071732269562
 20
8.910020776733645
 30
0.0
 11
-3.853071732269562
 21
8.010020853609557
 31
0.0
  0
ARC
  5
84A
330
1E
100
AcDbEntity
  8
0
  6
HIDDEN
100
AcDbCircle
 10
-3.941071813819969
 20
8.010020907146493
 30
0.0
 40
0.1500000000000012
100
AcDbArc
 50
270.0000000000008
 51
0.0
  0
ELLIPSE
  5
84B
330
1E
100
AcDbEntity
  8
0
  6
HIDDEN
100
AcDbEllipse
 10
-3.941071813819969
 20
8.010020907146493
 30
0.0
 11
-0.0000000000000009
 21
0.1500000000000021
 31
0.0
210
0.0
220
0.0
230
1.0
 40
0.5866666666666589
 41
3.141592653589783
 42
4.712388980384694
  0
LINE
  5
84C
330
1E
100
AcDbEntity
  8
0
  6
HIDDEN
100
AcDbLine
 10
-3.853071732269562
 20
8.010020853609557
 30
0.0
 11
-3.791071755165255
 21
8.010020853609557
 31
0.0
  0
SPLINE
  5
84D
330
1E
100
AcDbEntity
  8
0
  6
HIDDEN
100
AcDbSpline
210
0.0
220
0.0
230
1.0
 70
    24
 71
     1
 72
     4
 73
     2
 74
     0
 42
0.0000000001
 43
0.0000000001
 40
0.0
 40
0.0
 40
1.0
 40
1.0
 10
-3.854174066201975
 20
9.03902083318065
 30
0.0
 10
-4.176103093917043
 20
9.03902083318065
 30
0.0
  0
SPLINE
  5
84E
330
1E
100
AcDbEntity
  8
0
  6
HIDDEN
100
AcDbSpline
210
0.0
220
0.0
230
1.0
 70
    24
 71
     1
 72
     4
 73
     2
 74
     0
 42
0.0000000001
 43
0.0000000001
 40
0.0
 40
0.0
 40
1.0
 40
1.0
 10
-4.176103093917043
 20
8.843020990720891
 30
0.0
 10
-3.854174066201975
 20
8.843020990720891
 30
0.0
  0
LINE
  5
84F
330
1E
100
AcDbEntity
  8
0
  6
HIDDEN
100
AcDbLine
 10
-4.176103093917043
 20
9.03902083318065
 30
0.0
 11
-4.176103093917043
 21
8.843020990720891
 31
0.0
  0
LINE
  5
850
330
1E
100
AcDbEntity
  8
0
  6
HIDDEN
100
AcDbLine
 10
-4.196103502870612
 20
8.863020813014571
 30
0.0
 11
-4.196103502870612
 21
9.019021010886973
 31
0.0
  0
SPLINE
  5
851
330
1E
100
AcDbEntity
  8
0
  6
HIDDEN
100
AcDbSpline
210
0.0
220
0.0
230
1.0
 70
    24
 71
     1
 72
     4
 73
     2
 74
     0
 42
0.0000000001
 43
0.0000000001
 40
0.0
 40
0.0
 40
1.0
 40
1.0
 10
-4.196103502870612
 20
8.863020813014571
 30
0.0
 10
-4.176103093917043
 20
8.843020990720891
 30
0.0
  0
SPLINE
  5
852
330
1E
100
AcDbEntity
  8
0
  6
HIDDEN
100
AcDbSpline
210
0.0
220
0.0
230
1.0
 70
    24
 71
     1
 72
     4
 73
     2
 74
     0
 42
0.0000000001
 43
0.0000000001
 40
0.0
 40
0.0
 40
1.0
 40
1.0
 10
-4.176103093917043
 20
9.03902083318065
 30
0.0
 10
-4.196103502870612
 20
9.019021010886973
 30
0.0
  0
LINE
  5
853
330
1E
100
AcDbEntity
  8
0
  6
HIDDEN
100
AcDbLine
 10
-3.823071705499101
 20
9.11602082367019
 30
0.0
 11
-3.823071705499101
 21
8.766021000231351
 31
0.0
  0
LINE
  5
854
330
1E
100
AcDbEntity
  8
0
  6
HIDDEN
100
AcDbLine
 10
-3.848071630031173
 20
9.11602082367019
 30
0.0
 11
-3.848071630031173
 21
8.766021000231351
 31
0.0
  0
LINE
  5
855
330
1E
100
AcDbEntity
  8
0
  6
HIDDEN
100
AcDbLine
 10
-3.854174066201975
 20
8.843020990720891
 30
0.0
 11
-3.854174066201975
 21
9.033919238781372
 31
0.0
  0
ARC
  5
856
330
1E
100
AcDbEntity
  8
0
  6
HIDDEN
100
AcDbCircle
 10
-3.941071813819969
 20
8.910020907146495
 30
0.0
 40
0.1500000000000021
100
AcDbArc
 50
270.0000000000008
 51
0.0
  0
ELLIPSE
  5
857
330
1E
100
AcDbEntity
  8
0
  6
HIDDEN
100
AcDbEllipse
 10
-3.941071813819969
 20
8.910020907146495
 30
0.0
 11
-0.0000000000000009
 21
0.1500000000000021
 31
0.0
210
0.0
220
0.0
230
1.0
 40
0.5866666666666559
 41
3.141592653589783
 42
4.712388980384694
  0
LINE
  5
858
330
1E
100
AcDbEntity
  8
0
  6
HIDDEN
100
AcDbLine
 10
-3.852641710570545
 20
9.153521003798246
 30
0.0
 11
-3.852641710570545
 21
8.778520962497388
 31
0.0
  0
LINE
  5
859
330
1E
100
AcDbEntity
  8
0
  6
HIDDEN
100
AcDbLine
 10
-3.942631231003926
 20
9.086020796899727
 30
0.0
 11
-3.942631231003926
 21
8.84602087606596
 31
0.0
  0
ARC
  5
85A
330
1E
100
AcDbEntity
  8
0
  6
HIDDEN
100
AcDbCircle
 10
-3.90057181381997
 20
8.778520907146493
 30
0.0
 40
0.1095000000000006
100
AcDbArc
 50
0.0
 51
90.0
  0
LINE
  5
85B
330
1E
100
AcDbEntity
  8
0
  6
HIDDEN
100
AcDbLine
 10
-3.823071705499101
 20
8.8691666620172
 30
0.0
 11
-3.848071630031173
 21
8.8691666620172
 31
0.0
  0
LINE
  5
85C
330
1E
100
AcDbEntity
  8
0
  6
HIDDEN
100
AcDbLine
 10
-3.823071705499101
 20
8.886488675245157
 30
0.0
 11
-3.848071630031173
 21
8.886488675245157
 31
0.0
  0
SPLINE
  5
85D
330
1E
100
AcDbEntity
  8
0
  6
HIDDEN
100
AcDbSpline
210
0.0
220
0.0
230
1.0
 70
    24
 71
     1
 72
     4
 73
     2
 74
     0
 42
0.0000000001
 43
0.0000000001
 40
0.0
 40
0.0
 40
1.0
 40
1.0
 10
-3.848071630031173
 20
8.766021000231351
 30
0.0
 10
-3.823071705499101
 20
8.766021000231351
 30
0.0
  0
SPLINE
  5
85E
330
1E
100
AcDbEntity
  8
0
  6
HIDDEN
100
AcDbSpline
210
0.0
220
0.0
230
1.0
 70
    24
 71
     1
 72
     4
 73
     2
 74
     0
 42
0.0000000001
 43
0.0000000001
 40
0.0
 40
0.0
 40
1.0
 40
1.0
 10
-3.848071630031173
 20
8.823987983925142
 30
0.0
 10
-3.823071705499101
 20
8.823987983925142
 30
0.0
  0
SPLINE
  5
85F
330
1E
100
AcDbEntity
  8
0
  6
HIDDEN
100
AcDbSpline
210
0.0
220
0.0
230
1.0
 70
    24
 71
     1
 72
     4
 73
     2
 74
     0
 42
0.0000000001
 43
0.0000000001
 40
0.0
 40
0.0
 40
1.0
 40
1.0
 10
-3.848071630031173
 20
8.867516974407863
 30
0.0
 10
-3.823071705499101
 20
8.867516974407863
 30
0.0
  0
SPLINE
  5
860
330
1E
100
AcDbEntity
  8
0
  6
HIDDEN
100
AcDbSpline
210
0.0
220
0.0
230
1.0
 70
    24
 71
     1
 72
     4
 73
     2
 74
     0
 42
0.0000000001
 43
0.0000000001
 40
0.0
 40
0.0
 40
1.0
 40
1.0
 10
-3.854174066201975
 20
8.867005113654258
 30
0.0
 10
-3.823071705499101
 20
8.867005113654258
 30
0.0
  0
ARC
  5
861
330
1E
100
AcDbEntity
  8
0
  6
HIDDEN
100
AcDbCircle
 10
-3.920141831615049
 20
8.778520907146493
 30
0.0
 40
0.0675000000000008
100
AcDbArc
 50
0.0000000000004071
 51
90.0
  0
SPLINE
  5
862
330
1E
100
AcDbEntity
  8
0
  6
HIDDEN
100
AcDbSpline
210
0.0
220
0.0
230
1.0
 70
    24
 71
     1
 72
     4
 73
     2
 74
     0
 42
0.0000000001
 43
0.0000000001
 40
0.0
 40
0.0
 40
1.0
 40
1.0
 10
-3.853071732269564
 20
8.778520962497388
 30
0.0
 10
-3.852641710570545
 20
8.778520962497388
 30
0.0
  0
SPLINE
  5
863
330
1E
100
AcDbEntity
  8
0
  6
HIDDEN
100
AcDbSpline
210
0.0
220
0.0
230
1.0
 70
    24
 71
     1
 72
     4
 73
     2
 74
     0
 42
0.0000000001
 43
0.0000000001
 40
0.0
 40
0.0
 40
1.0
 40
1.0
 10
-3.942631231003926
 20
8.84602087606596
 30
0.0
 10
-3.920141624139117
 20
8.84602087606596
 30
0.0
  0
SPLINE
  5
864
330
1E
100
AcDbEntity
  8
0
  6
HIDDEN
100
AcDbSpline
210
0.0
220
0.0
230
1.0
 70
    24
 71
     1
 72
     4
 73
     2
 74
     0
 42
0.0000000001
 43
0.0000000001
 40
0.0
 40
0.0
 40
1.0
 40
1.0
 10
-3.942631231003926
 20
8.888021030876586
 30
0.0
 10
-3.900571823544456
 20
8.888021030876586
 30
0.0
  0
ARC
  5
865
330
1E
100
AcDbEntity
  8
0
  6
HIDDEN
100
AcDbCircle
 10
-3.90057181381997
 20
9.153520907146493
 30
0.0
 40
0.1094999999999997
100
AcDbArc
 50
270.0000000000008
 51
0.0
  0
LINE
  5
866
330
1E
100
AcDbEntity
  8
0
  6
HIDDEN
100
AcDbLine
 10
-3.823071705499101
 20
8.904775743991379
 30
0.0
 11
-3.848071630031173
 21
8.904775743991379
 31
0.0
  0
LINE
  5
867
330
1E
100
AcDbEntity
  8
0
  6
HIDDEN
100
AcDbLine
 10
-3.823071705499101
 20
8.977266079910165
 30
0.0
 11
-3.848071630031173
 21
8.977266079910165
 31
0.0
  0
LINE
  5
868
330
1E
100
AcDbEntity
  8
0
  6
HIDDEN
100
AcDbLine
 10
-3.823071705499101
 20
9.012875161884345
 30
0.0
 11
-3.848071630031173
 21
9.012875161884345
 31
0.0
  0
LINE
  5
869
330
1E
100
AcDbEntity
  8
0
  6
HIDDEN
100
AcDbLine
 10
-3.823071705499101
 20
8.995553148656384
 30
0.0
 11
-3.848071630031173
 21
8.995553148656384
 31
0.0
  0
LINE
  5
86A
330
1E
100
AcDbEntity
  8
0
  6
HIDDEN
100
AcDbLine
 10
-3.853071732269562
 20
8.910020776733645
 30
0.0
 11
-3.791071755165255
 21
8.910020776733645
 31
0.0
  0
SPLINE
  5
86B
330
1E
100
AcDbEntity
  8
0
  6
HIDDEN
100
AcDbSpline
210
0.0
220
0.0
230
1.0
 70
    24
 71
     1
 72
     4
 73
     2
 74
     0
 42
0.0000000001
 43
0.0000000001
 40
0.0
 40
0.0
 40
1.0
 40
1.0
 10
-3.823071705499101
 20
9.058053839976402
 30
0.0
 10
-3.848071630031173
 20
9.058053839976402
 30
0.0
  0
SPLINE
  5
86C
330
1E
100
AcDbEntity
  8
0
  6
HIDDEN
100
AcDbSpline
210
0.0
220
0.0
230
1.0
 70
    24
 71
     1
 72
     4
 73
     2
 74
     0
 42
0.0000000001
 43
0.0000000001
 40
0.0
 40
0.0
 40
1.0
 40
1.0
 10
-3.823071705499101
 20
9.014524849493682
 30
0.0
 10
-3.848071630031173
 20
9.014524849493682
 30
0.0
  0
SPLINE
  5
86D
330
1E
100
AcDbEntity
  8
0
  6
HIDDEN
100
AcDbSpline
210
0.0
220
0.0
230
1.0
 70
    24
 71
     1
 72
     4
 73
     2
 74
     0
 42
0.0000000001
 43
0.0000000001
 40
0.0
 40
0.0
 40
1.0
 40
1.0
 10
-3.823071705499101
 20
9.015036710247287
 30
0.0
 10
-3.854174066201975
 20
9.015036710247287
 30
0.0
  0
LINE
  5
86E
330
1E
100
AcDbEntity
  8
0
  6
HIDDEN
100
AcDbLine
 10
-3.854174066201975
 20
9.033919238781372
 30
0.0
 11
-3.854174066201975
 21
9.03902083318065
 31
0.0
  0
SPLINE
  5
86F
330
1E
100
AcDbEntity
  8
0
  6
HIDDEN
100
AcDbSpline
210
0.0
220
0.0
230
1.0
 70
    24
 71
     1
 72
     4
 73
     2
 74
     0
 42
0.0000000001
 43
0.0000000001
 40
0.0
 40
0.0
 40
1.0
 40
1.0
 10
-3.900571823544456
 20
9.044020935419045
 30
0.0
 10
-3.942631231003926
 20
9.044020935419045
 30
0.0
  0
SPLINE
  5
870
330
1E
100
AcDbEntity
  8
0
  6
HIDDEN
100
AcDbSpline
210
0.0
220
0.0
230
1.0
 70
    24
 71
     1
 72
     4
 73
     2
 74
     0
 42
0.0000000001
 43
0.0000000001
 40
0.0
 40
0.0
 40
1.0
 40
1.0
 10
-3.823071705499101
 20
9.11602082367019
 30
0.0
 10
-3.848071630031173
 20
9.11602082367019
 30
0.0
  0
ARC
  5
871
330
1E
100
AcDbEntity
  8
0
  6
HIDDEN
100
AcDbCircle
 10
-3.920141831615049
 20
9.153520907146493
 30
0.0
 40
0.0675000000000003
100
AcDbArc
 50
270.0000000000008
 51
0.0000000000004071
  0
SPLINE
  5
872
330
1E
100
AcDbEntity
  8
0
  6
HIDDEN
100
AcDbSpline
210
0.0
220
0.0
230
1.0
 70
    24
 71
     1
 72
     4
 73
     2
 74
     0
 42
0.0000000001
 43
0.0000000001
 40
0.0
 40
0.0
 40
1.0
 40
1.0
 10
-3.852641710570545
 20
9.153521003798246
 30
0.0
 10
-3.853071732269564
 20
9.153521003798246
 30
0.0
  0
SPLINE
  5
873
330
1E
100
AcDbEntity
  8
0
  6
HIDDEN
100
AcDbSpline
210
0.0
220
0.0
230
1.0
 70
    24
 71
     1
 72
     4
 73
     2
 74
     0
 42
0.0000000001
 43
0.0000000001
 40
0.0
 40
0.0
 40
1.0
 40
1.0
 10
-3.920141624139117
 20
9.086020796899727
 30
0.0
 10
-3.942631231003926
 20
9.086020796899727
 30
0.0
  0
LINE
  5
874
330
1E
100
AcDbEntity
  8
0
  6
HIDDEN
100
AcDbLine
 10
-3.941071889017578
 20
9.560020867877128
 30
0.0
 11
-4.491071988702826
 21
9.560020867877128
 31
0.0
  0
SPLINE
  5
875
330
1E
100
AcDbEntity
  8
0
  6
HIDDEN
100
AcDbSpline
210
0.0
220
0.0
230
1.0
 70
    24
 71
     1
 72
     4
 73
     2
 74
     0
 42
0.0000000001
 43
0.0000000001
 40
0.0
 40
0.0
 40
1.0
 40
1.0
 10
-4.834071786339896
 20
9.58202090706413
 30
0.0
 10
-4.834071786339896
 20
9.622020844981435
 30
0.0
  0
LINE
  5
876
330
1E
100
AcDbEntity
  8
0
  6
HIDDEN
100
AcDbLine
 10
-4.591071686831114
 20
9.560020867877128
 30
0.0
 11
-4.591071686831114
 21
9.622020844981435
 31
0.0
  0
LINE
  5
877
330
1E
100
AcDbEntity
  8
0
  6
HIDDEN
100
AcDbLine
 10
-4.491071988702826
 20
9.560020867877128
 30
0.0
 11
-4.591071686831114
 21
9.560020867877128
 31
0.0
  0
LINE
  5
878
330
1E
100
AcDbEntity
  8
0
  6
HIDDEN
100
AcDbLine
 10
-3.830071731300868
 20
9.722020836439664
 30
0.0
 11
-4.208071951276738
 21
9.722020836439664
 31
0.0
  0
LINE
  5
879
330
1E
100
AcDbEntity
  8
0
  6
Continuous
100
AcDbLine
 10
-4.208071951276738
 20
9.707021116384378
 30
0.0
 11
-4.208071951276738
 21
9.784020813543975
 31
0.0
  0
ARC
  5
87A
330
1E
100
AcDbEntity
  8
0
  6
HIDDEN
100
AcDbCircle
 10
-3.941071813819972
 20
9.472020907146497
 30
0.0
 40
0.0880000000000005
100
AcDbArc
 50
0.0
 51
90.0
  0
ARC
  5
87B
330
1E
100
AcDbEntity
  8
0
  6
HIDDEN
100
AcDbCircle
 10
-3.941071813819972
 20
9.472020907146497
 30
0.0
 40
0.1500000000000003
100
AcDbArc
 50
0.0
 51
90.0
  0
LINE
  5
87C
330
1E
100
AcDbEntity
  8
0
  6
HIDDEN
100
AcDbLine
 10
-3.853071732269564
 20
9.472021004459058
 30
0.0
 11
-3.791071755165257
 21
9.472021004459058
 31
0.0
  0
CIRCLE
  5
87D
330
1E
100
AcDbEntity
  8
0
  6
Continuous
100
AcDbCircle
 10
1.81623531736699
 20
8.941020907146743
 30
0.0
 40
0.25
  0
LINE
  5
87E
330
1E
100
AcDbEntity
  8
0
  6
Continuous
100
AcDbLine
 10
2.198235427527635
 20
10.91902114192332
 30
0.0
 11
1.448235344925922
 21
10.91902114192332
 31
0.0
  0
LINE
  5
87F
330
1E
100
AcDbEntity
  8
0
  6
Continuous
100
AcDbLine
 10
-3.448071664198244
 20
9.176020877211119
 30
0.0
 11
-3.448071664198244
 21
8.706020946690422
 31
0.0
  0
LINE
  5
880
330
1E
100
AcDbEntity
  8
0
  6
Continuous
100
AcDbLine
 10
-3.41507967199122
 20
9.148134586022599
 30
0.0
 11
-3.41507967199122
 21
8.733907237878941
 31
0.0
  0
LINE
  5
881
330
1E
100
AcDbEntity
  8
0
  6
Continuous
100
AcDbLine
 10
-3.332087830720052
 20
9.041572217040183
 30
0.0
 11
-3.332087830720052
 21
8.840469606861361
 31
0.0
  0
LINE
  5
882
330
1E
100
AcDbEntity
  8
0
  6
HIDDEN
100
AcDbLine
 10
-3.355071991871727
 20
8.929268207719012
 30
0.0
 11
-3.355071991871727
 21
8.896090244327012
 31
0.0
  0
SPLINE
  5
883
330
1E
100
AcDbEntity
  8
0
  6
HIDDEN
100
AcDbSpline
210
0.0
220
0.0
230
1.0
 70
    24
 71
     1
 72
     4
 73
     2
 74
     0
 42
0.0000000001
 43
0.0000000001
 40
0.0
 40
0.0
 40
1.0
 40
1.0
 10
-3.580071899320264
 20
8.826021053772279
 30
0.0
 10
-3.518071922215957
 20
8.826021053772279
 30
0.0
  0
SPLINE
  5
884
330
1E
100
AcDbEntity
  8
0
  6
Continuous
100
AcDbSpline
210
0.0
220
0.0
230
1.0
 70
    24
 71
     1
 72
     4
 73
     2
 74
     0
 42
0.0000000001
 43
0.0000000001
 40
0.0
 40
0.0
 40
1.0
 40
1.0
 10
-3.448071664198244
 20
8.731020871222497
 30
0.0
 10
-3.41507967199122
 20
8.733907237878941
 30
0.0
  0
ARC
  5
885
330
1E
100
AcDbEntity
  8
0
  6
Continuous
100
AcDbCircle
 10
-3.503071813819992
 20
8.706020907146744
 30
0.0
 40
0.0150000000000006
100
AcDbArc
 50
180.0
 51
270.0000000000008
  0
SPLINE
  5
886
330
1E
100
AcDbEntity
  8
0
  6
Continuous
100
AcDbSpline
210
0.0
220
0.0
230
1.0
 70
    24
 71
     1
 72
     4
 73
     2
 74
     0
 42
0.0000000001
 43
0.0000000001
 40
0.0
 40
0.0
 40
1.0
 40
1.0
 10
-3.50307161550078
 20
8.691020933305189
 30
0.0
 10
-3.463071970913421
 20
8.691020933305189
 30
0.0
  0
ARC
  5
887
330
1E
100
AcDbEntity
  8
0
  6
Continuous
100
AcDbCircle
 10
-3.463071813819992
 20
8.706020907146744
 30
0.0
 40
0.0150000000000006
100
AcDbArc
 50
270.0000000000008
 51
0.0
  0
ARC
  5
888
330
1E
100
AcDbEntity
  8
0
  6
HIDDEN
100
AcDbCircle
 10
-3.463071813819992
 20
8.841020907146742
 30
0.0
 40
0.0150000000000024
100
AcDbArc
 50
0.0
 51
90.0
  0
ARC
  5
889
330
1E
100
AcDbEntity
  8
0
  6
HIDDEN
100
AcDbCircle
 10
-3.503071813819992
 20
8.841020907146742
 30
0.0
 40
0.0150000000000024
100
AcDbArc
 50
90.0
 51
180.0
  0
SPLINE
  5
88A
330
1E
100
AcDbEntity
  8
0
  6
HIDDEN
100
AcDbSpline
210
0.0
220
0.0
230
1.0
 70
    24
 71
     1
 72
     4
 73
     2
 74
     0
 42
0.0000000001
 43
0.0000000001
 40
0.0
 40
0.0
 40
1.0
 40
1.0
 10
-3.50307161550078
 20
8.856020787212798
 30
0.0
 10
-3.463071970913421
 20
8.856020787212798
 30
0.0
  0
ARC
  5
88B
330
1E
100
AcDbEntity
  8
0
  6
Continuous
100
AcDbCircle
 10
-3.410827719331803
 20
8.840469726044378
 30
0.0
 40
0.0787401574803153
100
AcDbArc
 50
270.0000000000008
 51
0.0
  0
SPLINE
  5
88C
330
1E
100
AcDbEntity
  8
0
  6
Continuous
100
AcDbSpline
210
0.0
220
0.0
230
1.0
 70
    24
 71
     1
 72
     4
 73
     2
 74
     0
 42
0.0000000001
 43
0.0000000001
 40
0.0
 40
0.0
 40
1.0
 40
1.0
 10
-3.41507967199122
 20
8.761729583139501
 30
0.0
 10
-3.410827561111968
 20
8.761729583139501
 30
0.0
  0
LINE
  5
88D
330
1E
100
AcDbEntity
  8
0
  6
HIDDEN
100
AcDbLine
 10
-3.355071991871727
 20
8.896090244327012
 30
0.0
 11
-3.332087830720052
 21
8.896090244327012
 31
0.0
  0
LINE
  5
88E
330
1E
100
AcDbEntity
  8
0
  6
HIDDEN
100
AcDbLine
 10
-3.355071991871728
 20
8.896090244327012
 30
0.0
 11
-3.355071991871728
 21
8.851081404272974
 31
0.0
  0
LINE
  5
88F
330
1E
100
AcDbEntity
  8
0
  6
HIDDEN
100
AcDbLine
 10
-3.355071991871728
 20
8.862227062184047
 30
0.0
 11
-3.332087830720052
 21
8.862227062184047
 31
0.0
  0
LINE
  5
890
330
1E
100
AcDbEntity
  8
0
  6
HIDDEN
100
AcDbLine
 10
-3.355071991871728
 20
8.851081404272974
 30
0.0
 11
-3.332087830720052
 21
8.851081404272974
 31
0.0
  0
SPLINE
  5
891
330
1E
100
AcDbEntity
  8
0
  6
HIDDEN
100
AcDbSpline
210
0.0
220
0.0
230
1.0
 70
    24
 71
     1
 72
     4
 73
     2
 74
     0
 42
0.0000000001
 43
0.0000000001
 40
0.0
 40
0.0
 40
1.0
 40
1.0
 10
-3.518071922215957
 20
9.056020770129265
 30
0.0
 10
-3.580071899320264
 20
9.056020770129265
 30
0.0
  0
ARC
  5
892
330
1E
100
AcDbEntity
  8
0
  6
Continuous
100
AcDbCircle
 10
-3.410827719331803
 20
9.041572088249104
 30
0.0
 40
0.0787401574803153
100
AcDbArc
 50
0.0000000000004071
 51
90.0
  0
ARC
  5
893
330
1E
100
AcDbEntity
  8
0
  6
HIDDEN
100
AcDbCircle
 10
-3.463071813819992
 20
9.041020907146744
 30
0.0
 40
0.0150000000000024
100
AcDbArc
 50
270.0000000000008
 51
0.0
  0
ARC
  5
894
330
1E
100
AcDbEntity
  8
0
  6
HIDDEN
100
AcDbCircle
 10
-3.503071813819992
 20
9.041020907146744
 30
0.0
 40
0.0150000000000024
100
AcDbArc
 50
180.0
 51
270.0000000000008
  0
SPLINE
  5
895
330
1E
100
AcDbEntity
  8
0
  6
HIDDEN
100
AcDbSpline
210
0.0
220
0.0
230
1.0
 70
    24
 71
     1
 72
     4
 73
     2
 74
     0
 42
0.0000000001
 43
0.0000000001
 40
0.0
 40
0.0
 40
1.0
 40
1.0
 10
-3.463071970913421
 20
9.026021036688746
 30
0.0
 10
-3.50307161550078
 20
9.026021036688746
 30
0.0
  0
LINE
  5
896
330
1E
100
AcDbEntity
  8
0
  6
HIDDEN
100
AcDbLine
 10
-3.355071991871727
 20
8.929268207719012
 30
0.0
 11
-3.332087830720052
 21
8.929268207719012
 31
0.0
  0
LINE
  5
897
330
1E
100
AcDbEntity
  8
0
  6
HIDDEN
100
AcDbLine
 10
-3.355071991871728
 20
8.952037064691236
 30
0.0
 11
-3.355071991871727
 21
8.929268207719012
 31
0.0
  0
LINE
  5
898
330
1E
100
AcDbEntity
  8
0
  6
HIDDEN
100
AcDbLine
 10
-3.355071991871728
 20
8.918859101299233
 30
0.0
 11
-3.332087830720052
 21
8.918859101299233
 31
0.0
  0
LINE
  5
899
330
1E
100
AcDbEntity
  8
0
  6
HIDDEN
100
AcDbLine
 10
-3.355071991871728
 20
9.03096041962857
 30
0.0
 11
-3.355071991871728
 21
9.019814761717498
 31
0.0
  0
LINE
  5
89A
330
1E
100
AcDbEntity
  8
0
  6
HIDDEN
100
AcDbLine
 10
-3.355071991871728
 20
9.019814761717498
 30
0.0
 11
-3.332087830720052
 21
9.019814761717498
 31
0.0
  0
LINE
  5
89B
330
1E
100
AcDbEntity
  8
0
  6
HIDDEN
100
AcDbLine
 10
-3.355071991871728
 20
8.952037064691236
 30
0.0
 11
-3.332087830720052
 21
8.952037064691236
 31
0.0
  0
LINE
  5
89C
330
1E
100
AcDbEntity
  8
0
  6
HIDDEN
100
AcDbLine
 10
-3.355071991871728
 20
9.019814761717498
 30
0.0
 11
-3.355071991871728
 21
8.952037064691236
 31
0.0
  0
LINE
  5
89D
330
1E
100
AcDbEntity
  8
0
  6
HIDDEN
100
AcDbLine
 10
-3.355071991871728
 20
8.963182722602311
 30
0.0
 11
-3.332087830720052
 21
8.963182722602311
 31
0.0
  0
LINE
  5
89E
330
1E
100
AcDbEntity
  8
0
  6
HIDDEN
100
AcDbLine
 10
-3.355071991871728
 20
9.03096041962857
 30
0.0
 11
-3.332087830720052
 21
9.03096041962857
 31
0.0
  0
LINE
  5
89F
330
1E
100
AcDbEntity
  8
0
  6
HIDDEN
100
AcDbLine
 10
-3.355071991871728
 20
8.930004759210309
 30
0.0
 11
-3.332087830720052
 21
8.930004759210309
 31
0.0
  0
LINE
  5
8A0
330
1E
100
AcDbEntity
  8
0
  6
HIDDEN
100
AcDbLine
 10
-3.355071991871728
 20
8.952773616182529
 30
0.0
 11
-3.332087830720052
 21
8.952773616182529
 31
0.0
  0
LINE
  5
8A1
330
1E
100
AcDbEntity
  8
0
  6
HIDDEN
100
AcDbLine
 10
-3.355071991871728
 20
8.985951579574532
 30
0.0
 11
-3.332087830720052
 21
8.985951579574532
 31
0.0
  0
SPLINE
  5
8A2
330
1E
100
AcDbEntity
  8
0
  6
Continuous
100
AcDbSpline
210
0.0
220
0.0
230
1.0
 70
    24
 71
     1
 72
     4
 73
     2
 74
     0
 42
0.0000000001
 43
0.0000000001
 40
0.0
 40
0.0
 40
1.0
 40
1.0
 10
-3.41507967199122
 20
9.148134586022599
 30
0.0
 10
-3.448071664198244
 20
9.151020952679047
 30
0.0
  0
ARC
  5
8A3
330
1E
100
AcDbEntity
  8
0
  6
Continuous
100
AcDbCircle
 10
-3.503071813819992
 20
9.176020907146742
 30
0.0
 40
0.0150000000000006
100
AcDbArc
 50
90.0
 51
180.0
  0
SPLINE
  5
8A4
330
1E
100
AcDbEntity
  8
0
  6
Continuous
100
AcDbSpline
210
0.0
220
0.0
230
1.0
 70
    24
 71
     1
 72
     4
 73
     2
 74
     0
 42
0.0000000001
 43
0.0000000001
 40
0.0
 40
0.0
 40
1.0
 40
1.0
 10
-3.463071970913421
 20
9.191020890596352
 30
0.0
 10
-3.50307161550078
 20
9.191020890596352
 30
0.0
  0
ARC
  5
8A5
330
1E
100
AcDbEntity
  8
0
  6
Continuous
100
AcDbCircle
 10
-3.463071813819992
 20
9.176020907146742
 30
0.0
 40
0.0150000000000006
100
AcDbArc
 50
0.0
 51
90.0
  0
SPLINE
  5
8A6
330
1E
100
AcDbEntity
  8
0
  6
Continuous
100
AcDbSpline
210
0.0
220
0.0
230
1.0
 70
    24
 71
     1
 72
     4
 73
     2
 74
     0
 42
0.0000000001
 43
0.0000000001
 40
0.0
 40
0.0
 40
1.0
 40
1.0
 10
-3.410827561111968
 20
9.120312240762039
 30
0.0
 10
-3.41507967199122
 20
9.120312240762039
 30
0.0
  0
LINE
  5
8A7
330
1E
100
AcDbEntity
  8
0
  6
HIDDEN
100
AcDbLine
 10
-3.541071923184647
 20
9.607020831596202
 30
0.0
 11
-3.541071923184647
 21
9.546938059010848
 31
0.0
  0
SPLINE
  5
8A8
330
1E
100
AcDbEntity
  8
0
  6
HIDDEN
100
AcDbSpline
210
0.0
220
0.0
230
1.0
 70
     8
 71
     3
 72
    10
 73
     6
 74
     0
 42
0.0000000001
 43
0.0000000001
 40
0.0
 40
0.0
 40
0.0
 40
0.0
 40
0.5
 40
0.5
 40
1.0
 40
1.0
 40
1.0
 40
1.0
 10
-3.61807181382001
 20
9.607020907146733
 30
0.0
 10
-3.614144821939213
 20
9.597007080563415
 30
0.0
 10
-3.61024201181749
 20
9.586993253980097
 30
0.0
 10
-3.604688406640336
 20
9.56696560081346
 30
0.0
 10
-3.603071809756553
 20
9.556951774230142
 30
0.0
 10
-3.603071809756551
 20
9.546937947646824
 30
0.0
  0
SPLINE
  5
8A9
330
1E
100
AcDbEntity
  8
0
  6
HIDDEN
100
AcDbSpline
210
0.0
220
0.0
230
1.0
 70
    24
 71
     3
 72
    10
 73
     6
 74
     0
 42
0.0000000001
 43
0.0000000001
 40
0.0
 40
0.0
 40
0.0
 40
0.0
 40
0.5
 40
0.5
 40
1.0
 40
1.0
 40
1.0
 40
1.0
 10
-3.603071813819997
 20
9.57697943257822
 30
0.0
 10
-3.603071813819998
 20
9.572559454282405
 30
0.0
 10
-3.603071813819998
 20
9.567597547036982
 30
0.0
 10
-3.603071813819999
 20
9.557410740262891
 30
0.0
 10
-3.603071813819998
 20
9.552169639323253
 30
0.0
 10
-3.603071813819998
 20
9.546937947646824
 30
0.0
  0
LINE
  5
8AA
330
1E
100
AcDbEntity
  8
0
  6
HIDDEN
100
AcDbLine
 10
-3.603071900288955
 20
9.359020923178974
 30
0.0
 11
-3.541071923184647
 21
9.359020923178974
 31
0.0
  0
ARC
  5
8AB
330
1E
100
AcDbEntity
  8
0
  6
Continuous
100
AcDbCircle
 10
-3.595071813819986
 20
9.707020907146741
 30
0.0
 40
0.077
100
AcDbArc
 50
0.0000000000004071
 51
90.0
  0
ARC
  5
8AC
330
1E
100
AcDbEntity
  8
0
  6
HIDDEN
100
AcDbCircle
 10
-3.595071813819986
 20
9.707020907146741
 30
0.0
 40
0.0150000000000006
100
AcDbArc
 50
359.9999999999871
 51
89.99999999999664
  0
ARC
  5
8AD
330
1E
100
AcDbEntity
  8
0
  6
HIDDEN
100
AcDbCircle
 10
-3.618071813819984
 20
9.607020907146495
 30
0.0
 40
0.0770000000000004
100
AcDbArc
 50
0.0000000000004071
 51
90.0
  0
SPLINE
  5
8AE
330
1E
100
AcDbEntity
  8
0
  6
HIDDEN
100
AcDbSpline
210
0.0
220
0.0
230
1.0
 70
     8
 71
     3
 72
    10
 73
     6
 74
     0
 42
0.0000000001
 43
0.0000000001
 40
0.0
 40
0.0
 40
0.0
 40
0.0
 40
0.5
 40
0.5
 40
1.0
 40
1.0
 40
1.0
 40
1.0
 10
-3.618071813817764
 20
9.607020907141006
 30
0.0
 10
-3.616017981907184
 20
9.601783637187786
 30
0.0
 10
-3.6139729768252
 20
9.596542547364947
 30
0.0
 10
-3.609229080494684
 20
9.58634334136888
 30
0.0
 10
-3.606521711116882
 20
9.581378051632391
 30
0.0
 10
-3.603071813819998
 20
9.576979432577672
 30
0.0
  0
LINE
  5
8AF
330
1E
100
AcDbEntity
  8
0
  6
HIDDEN
100
AcDbLine
 10
-3.603071900288955
 20
9.576979445303525
 30
0.0
 11
-3.603071900288955
 21
9.622020844981435
 31
0.0
  0
LWPOLYLINE
  5
8B0
330
1E
100
AcDbEntity
  8
0
  6
HIDDEN
100
AcDbPolyline
 90
        2
 70
   128
 43
0.0
 10
-3.603071900288955
 20
9.622020844981435
 10
-3.603071900288955
 20
9.622020844981435
  0
SPLINE
  5
8B1
330
1E
100
AcDbEntity
  8
0
  6
HIDDEN
100
AcDbSpline
210
0.0
220
0.0
230
1.0
 70
     8
 71
     3
 72
    10
 73
     6
 74
     0
 42
0.0000000001
 43
0.0000000001
 40
0.0
 40
0.0
 40
0.0
 40
0.0
 40
0.5
 40
0.5
 40
1.0
 40
1.0
 40
1.0
 40
1.0
 10
-3.603071809756809
 20
9.607020907146495
 30
0.0
 10
-3.60307180975681
 20
9.610947899027294
 30
0.0
 10
-3.60468840664059
 20
9.614850709149017
 30
0.0
 10
-3.610242011817748
 20
9.620404314326172
 30
0.0
 10
-3.61414482193947
 20
9.622020911209958
 30
0.0
 10
-3.618071813820268
 20
9.622020911209958
 30
0.0
  0
LINE
  5
8B2
330
1E
100
AcDbEntity
  8
0
  6
Continuous
100
AcDbLine
 10
1.323235428935619
 20
9.784020813543975
 30
0.0
 11
1.323235428935619
 21
10.79402093260307
 31
0.0
  0
ARC
  5
8B3
330
1E
100
AcDbEntity
  8
0
  6
Continuous
100
AcDbCircle
 10
1.05023531736699
 20
9.707020907146741
 30
0.0
 40
0.077
100
AcDbArc
 50
90.0
 51
179.9999999999993
  0
ARC
  5
8B4
330
1E
100
AcDbEntity
  8
0
  6
Continuous
100
AcDbCircle
 10
1.448235317366986
 20
10.7940209071469
 30
0.0
 40
0.1250000000000004
100
AcDbArc
 50
90.0
 51
180.0
  0
LINE
  5
8B5
330
1E
100
AcDbEntity
  8
0
  6
Continuous
100
AcDbLine
 10
2.323235343517939
 20
9.784020813543975
 30
0.0
 11
2.323235343517939
 21
10.79402093260307
 31
0.0
  0
CIRCLE
  5
8B6
330
1E
100
AcDbEntity
  8
0
  6
Continuous
100
AcDbCircle
 10
1.81623531736699
 20
8.941020907146743
 30
0.0
 40
0.1792913385826784
  0
CIRCLE
  5
8B7
330
1E
100
AcDbEntity
  8
0
  6
Continuous
100
AcDbCircle
 10
1.81623531736699
 20
8.941020907146743
 30
0.0
 40
0.207113562990759
  0
CIRCLE
  5
8B8
330
1E
100
AcDbEntity
  8
0
  6
Continuous
100
AcDbCircle
 10
1.81623531736699
 20
8.941020907146743
 30
0.0
 40
0.2100000000000003
  0
LINE
  5
8B9
330
1E
100
AcDbEntity
  8
0
  6
Continuous
100
AcDbLine
 10
1.726295706082236
 20
8.929268207719015
 30
0.0
 11
1.737441363993312
 21
8.896090244327012
 31
0.0
  0
LINE
  5
8BA
330
1E
100
AcDbEntity
  8
0
  6
Continuous
100
AcDbLine
 10
1.737441363993312
 20
8.896090244327012
 30
0.0
 11
1.805219061019572
 21
8.918859101299233
 31
0.0
  0
LINE
  5
8BB
330
1E
100
AcDbEntity
  8
0
  6
Continuous
100
AcDbLine
 10
1.805219061019572
 20
8.918859101299233
 30
0.0
 11
1.827987917991793
 21
8.851081404272974
 31
0.0
  0
LINE
  5
8BC
330
1E
100
AcDbEntity
  8
0
  6
Continuous
100
AcDbLine
 10
1.861165881383795
 20
8.862227062184047
 30
0.0
 11
1.838397024411573
 21
8.930004759210309
 31
0.0
  0
LINE
  5
8BD
330
1E
100
AcDbEntity
  8
0
  6
Continuous
100
AcDbLine
 10
1.827987917991793
 20
8.851081404272974
 30
0.0
 11
1.861165881383795
 21
8.862227062184047
 31
0.0
  0
LINE
  5
8BE
330
1E
100
AcDbEntity
  8
0
  6
Continuous
100
AcDbLine
 10
1.838397024411573
 20
8.930004759210309
 30
0.0
 11
1.906175014767779
 21
8.952773616182533
 31
0.0
  0
LINE
  5
8BF
330
1E
100
AcDbEntity
  8
0
  6
Continuous
100
AcDbLine
 10
1.895029356856703
 20
8.985951579574532
 30
0.0
 11
1.827251366500499
 21
8.963182722602311
 31
0.0
  0
LINE
  5
8C0
330
1E
100
AcDbEntity
  8
0
  6
Continuous
100
AcDbLine
 10
1.794073403108496
 20
8.952037064691236
 30
0.0
 11
1.726295706082236
 21
8.929268207719015
 31
0.0
  0
LINE
  5
8C1
330
1E
100
AcDbEntity
  8
0
  6
Continuous
100
AcDbLine
 10
1.827251366500499
 20
8.963182722602311
 30
0.0
 11
1.804482509528277
 21
9.03096041962857
 31
0.0
  0
LINE
  5
8C2
330
1E
100
AcDbEntity
  8
0
  6
Continuous
100
AcDbLine
 10
1.804482509528277
 20
9.03096041962857
 30
0.0
 11
1.771304546136274
 21
9.019814761717498
 31
0.0
  0
LINE
  5
8C3
330
1E
100
AcDbEntity
  8
0
  6
Continuous
100
AcDbLine
 10
1.771304546136274
 20
9.019814761717498
 30
0.0
 11
1.794073403108496
 21
8.952037064691236
 31
0.0
  0
LINE
  5
8C4
330
1E
100
AcDbEntity
  8
0
  6
Continuous
100
AcDbLine
 10
1.906175014767779
 20
8.952773616182533
 30
0.0
 11
1.895029356856703
 21
8.985951579574532
 31
0.0
  0
ARC
  5
8C5
330
1E
100
AcDbEntity
  8
0
  6
Continuous
100
AcDbCircle
 10
1.823235317366986
 20
10.1490209071469
 30
0.0
 40
0.2185000000000001
100
AcDbArc
 50
180.0
 51
0.0
  0
ARC
  5
8C6
330
1E
100
AcDbEntity
  8
0
  6
Continuous
100
AcDbCircle
 10
1.823235317366986
 20
10.3990209071469
 30
0.0
 40
0.2185000000000001
100
AcDbArc
 50
0.0000000000004071
 51
179.9999999999996
  0
LINE
  5
8C7
330
1E
100
AcDbEntity
  8
0
  6
Continuous
100
AcDbLine
 10
1.604735377024198
 20
10.39902106900854
 30
0.0
 11
1.604735377024198
 21
10.14902065036804
 31
0.0
  0
LINE
  5
8C8
330
1E
100
AcDbEntity
  8
0
  6
Continuous
100
AcDbLine
 10
2.041735395429361
 20
10.14902065036804
 30
0.0
 11
2.041735395429361
 21
10.39902106900854
 31
0.0
  0
ARC
  5
8C9
330
1E
100
AcDbEntity
  8
0
  6
Continuous
100
AcDbCircle
 10
2.198235317366986
 20
10.7940209071469
 30
0.0
 40
0.125
100
AcDbArc
 50
0.0
 51
90.0
  0
MTEXT
  5
8CA
330
1E
100
AcDbEntity
  8
0
  6
Continuous
100
AcDbMText
 10
5.396650776504671
 20
12.10677770603959
 30
0.0
 40
0.5
 41
0.0
 71
     1
 72
     1
  1
A
  7
SLDTEXTSTYLE0
 73
     1
 44
1.0
  0
LINE
  5
8CB
330
1E
100
AcDbEntity
  8
0
  6
Continuous
100
AcDbLine
 10
6.512652062942549
 20
11.70983019914547
 30
0.0
 11
6.040211118060661
 21
11.70983019914547
 31
0.0
  0
SOLID
  5
8CC
330
1E
100
AcDbEntity
  8
0
  6
Continuous
100
AcDbTrace
 10
6.040211118060661
 20
11.70983019914547
 30
0.0
 11
6.276431590501605
 21
11.65077508103523
 31
0.0
 12
6.276431590501605
 22
11.7688853172557
 32
0.0
 13
6.276431590501605
 23
11.7688853172557
 33
0.0
  0
LINE
  5
8CD
330
1E
100
AcDbEntity
  8
0
  6
Continuous
100
AcDbLine
 10
2.051235179020384
 20
14.25774733701135
 30
0.0
 11
1.581235248499687
 21
14.25774733701135
 31
0.0
  0
LINE
  5
8CE
330
1E
100
AcDbEntity
  8
0
  6
HIDDEN
100
AcDbLine
 10
1.872235273509232
 20
14.60074742797836
 30
0.0
 11
1.310235339113766
 21
14.60074742797837
 31
0.0
  0
LINE
  5
8CF
330
1E
100
AcDbEntity
  8
0
  6
HIDDEN
100
AcDbLine
 10
1.872235273509232
 20
14.66274740508267
 30
0.0
 11
1.310235339113766
 21
14.66274740508267
 31
0.0
  0
LINE
  5
8D0
330
1E
100
AcDbEntity
  8
0
  6
Continuous
100
AcDbLine
 10
2.198235427527635
 20
20.68274748486137
 30
0.0
 11
1.448235344925922
 21
20.68274748486137
 31
0.0
  0
LINE
  5
8D1
330
1E
100
AcDbEntity
  8
0
  6
Continuous
100
AcDbLine
 10
2.198235427527635
 20
20.6047474959239
 30
0.0
 11
1.448235344925922
 21
20.6047474959239
 31
0.0
  0
ARC
  5
8D2
330
1E
100
AcDbEntity
  8
0
  6
Continuous
100
AcDbCircle
 10
1.635735317366986
 20
20.38874748663309
 30
0.0
 40
0.0625000000000002
100
AcDbArc
 50
0.0
 51
180.0
  0
LINE
  5
8D3
330
1E
100
AcDbEntity
  8
0
  6
Continuous
100
AcDbLine
 10
1.573235260916227
 20
20.31074748473712
 30
0.0
 11
1.69823517690653
 21
20.31074748473712
 31
0.0
  0
LINE
  5
8D4
330
1E
100
AcDbEntity
  8
0
  6
Continuous
100
AcDbLine
 10
1.573235260916227
 20
20.23274748663308
 30
0.0
 11
1.69823517690653
 21
20.23274748663308
 31
0.0
  0
LINE
  5
8D5
330
1E
100
AcDbEntity
  8
0
  6
HIDDEN
100
AcDbLine
 10
1.160235205261445
 20
14.41274757310206
 30
0.0
 11
1.160235205261445
 21
20.15574748697699
 31
0.0
  0
LINE
  5
8D6
330
1E
100
AcDbEntity
  8
0
  6
Continuous
100
AcDbLine
 10
1.098235228157138
 20
15.01774762408984
 30
0.0
 11
1.098235228157138
 21
20.15574748697699
 31
0.0
  0
LINE
  5
8D7
330
1E
100
AcDbEntity
  8
0
  6
HIDDEN
100
AcDbLine
 10
1.222235182365754
 20
14.75074756183069
 30
0.0
 11
1.222235182365754
 21
15.30074766151594
 31
0.0
  0
LINE
  5
8D8
330
1E
100
AcDbEntity
  8
0
  6
HIDDEN
100
AcDbLine
 10
1.035235289271142
 20
14.63974740411398
 30
0.0
 11
1.035235289271142
 21
14.38974757213337
 31
0.0
  0
LINE
  5
8D9
330
1E
100
AcDbEntity
  8
0
  6
HIDDEN
100
AcDbLine
 10
1.035235289271142
 20
14.63974740411398
 30
0.0
 11
1.035235289271142
 21
14.38974757213337
 31
0.0
  0
ARC
  5
8DA
330
1E
100
AcDbEntity
  8
0
  6
Continuous
100
AcDbCircle
 10
1.05023531736699
 20
14.4047474866331
 30
0.0
 40
0.0770000000000008
100
AcDbArc
 50
179.9999999999993
 51
191.2333438428877
  0
ARC
  5
8DB
330
1E
100
AcDbEntity
  8
0
  6
HIDDEN
100
AcDbCircle
 10
1.175235317366968
 20
14.42774748663309
 30
0.0
 40
0.0770000000000017
100
AcDbArc
 50
180.0
 51
270.0000000000008
  0
ARC
  5
8DC
330
1E
100
AcDbEntity
  8
0
  6
HIDDEN
100
AcDbCircle
 10
1.05023531736699
 20
14.4047474866331
 30
0.0
 40
0.0150000000000024
100
AcDbArc
 50
179.9999999999965
 51
270.0000000000033
  0
LINE
  5
8DD
330
1E
100
AcDbEntity
  8
0
  6
HIDDEN
100
AcDbLine
 10
1.535235246562301
 20
14.63974740411398
 30
0.0
 11
1.535235246562301
 21
14.38974757213337
 31
0.0
  0
LINE
  5
8DE
330
1E
100
AcDbEntity
  8
0
  6
HIDDEN
100
AcDbLine
 10
1.535235246562301
 20
14.63974740411398
 30
0.0
 11
1.535235246562301
 21
14.38974757213337
 31
0.0
  0
LINE
  5
8DF
330
1E
100
AcDbEntity
  8
0
  6
HIDDEN
100
AcDbLine
 10
1.428235229302298
 20
14.41274757310206
 30
0.0
 11
1.428235229302298
 21
14.35074759599776
 31
0.0
  0
LINE
  5
8E0
330
1E
100
AcDbEntity
  8
0
  6
HIDDEN
100
AcDbLine
 10
1.235318284561973
 20
14.35074759599776
 30
0.0
 11
1.175235218646678
 21
14.35074759599776
 31
0.0
  0
ARC
  5
8E1
330
1E
100
AcDbEntity
  8
0
  6
Continuous
100
AcDbCircle
 10
1.05023531736699
 20
14.4047474866331
 30
0.0
 40
0.0770000000000035
100
AcDbArc
 50
191.2333438428877
 51
270.0000000000008
  0
ARC
  5
8E2
330
1E
100
AcDbEntity
  8
0
  6
Continuous
100
AcDbCircle
 10
1.58123531736699
 20
14.2727474866331
 30
0.0
 40
0.0150000000000006
100
AcDbArc
 50
180.0
 51
270.0000000000008
  0
ARC
  5
8E3
330
1E
100
AcDbEntity
  8
0
  6
Continuous
100
AcDbCircle
 10
1.58123531736699
 20
14.3127474866331
 30
0.0
 40
0.0150000000000006
100
AcDbArc
 50
90.0
 51
180.0
  0
SPLINE
  5
8E4
330
1E
100
AcDbEntity
  8
0
  6
Continuous
100
AcDbSpline
210
0.0
220
0.0
230
1.0
 70
    24
 71
     1
 72
     4
 73
     2
 74
     0
 42
0.0000000001
 43
0.0000000001
 40
0.0
 40
0.0
 40
1.0
 40
1.0
 10
1.566235235114454
 20
14.31274728831389
 30
0.0
 10
1.566235235114454
 20
14.27274764372653
 30
0.0
  0
ARC
  5
8E5
330
1E
100
AcDbEntity
  8
0
  6
HIDDEN
100
AcDbCircle
 10
1.31023531736699
 20
14.75074748663308
 30
0.0
 40
0.1500000000000003
100
AcDbArc
 50
180.0
 51
270.0000000000008
  0
ARC
  5
8E6
330
1E
100
AcDbEntity
  8
0
  6
HIDDEN
100
AcDbCircle
 10
1.31023531736699
 20
14.75074748663308
 30
0.0
 40
0.088000000000001
100
AcDbArc
 50
180.0
 51
270.0000000000008
  0
LINE
  5
8E7
330
1E
100
AcDbEntity
  8
0
  6
Continuous
100
AcDbLine
 10
0.9732353121668353
 20
14.40474729218865
 30
0.0
 11
0.9732353121668353
 21
15.01774762408984
 31
0.0
  0
LINE
  5
8E8
330
1E
100
AcDbEntity
  8
0
  6
HIDDEN
100
AcDbLine
 10
1.035235289271142
 20
15.01774762408984
 30
0.0
 11
1.035235289271142
 21
14.63974740411398
 31
0.0
  0
LINE
  5
8E9
330
1E
100
AcDbEntity
  8
0
  6
HIDDEN
100
AcDbLine
 10
1.098235228157138
 20
14.42774729315735
 30
0.0
 11
1.098235228157138
 21
15.01774762408984
 31
0.0
  0
SPLINE
  5
8EA
330
1E
100
AcDbEntity
  8
0
  6
HIDDEN
100
AcDbSpline
210
0.0
220
0.0
230
1.0
 70
     8
 71
     3
 72
    10
 73
     6
 74
     0
 42
0.0000000001
 43
0.0000000001
 40
0.0
 40
0.0
 40
0.0
 40
0.0
 40
0.5
 40
0.5
 40
1.0
 40
1.0
 40
1.0
 40
1.0
 10
1.205276792713201
 20
14.4127474866331
 30
0.0
 10
1.200895956662632
 20
14.41618343681147
 30
0.0
 10
1.19590445991364
 20
14.41890885402753
 30
0.0
 10
1.185715276128323
 20
14.42364772440213
 30
0.0
 10
1.18046997124077
 20
14.42569468063658
 30
0.0
 10
1.175235317367683
 20
14.4277474866331
 30
0.0
  0
SPLINE
  5
8EB
330
1E
100
AcDbEntity
  8
0
  6
HIDDEN
100
AcDbSpline
210
0.0
220
0.0
230
1.0
 70
     8
 71
     3
 72
    10
 73
     6
 74
     0
 42
0.0000000001
 43
0.0000000001
 40
0.0
 40
0.0
 40
0.0
 40
0.0
 40
0.5
 40
0.5
 40
1.0
 40
1.0
 40
1.0
 40
1.0
 10
1.235318276866895
 20
14.41274748256992
 30
0.0
 10
1.225304450283578
 20
14.41274748256992
 30
0.0
 10
1.215290623700258
 20
14.4143640794537
 30
0.0
 10
1.195262970533626
 20
14.41991768463085
 30
0.0
 10
1.185249143950306
 20
14.42382049475258
 30
0.0
 10
1.175235317366988
 20
14.42774748663337
 30
0.0
  0
LINE
  5
8EC
330
1E
100
AcDbEntity
  8
0
  6
HIDDEN
100
AcDbLine
 10
1.160235205261445
 20
14.41274757310206
 30
0.0
 11
1.205276898269298
 21
14.41274757310206
 31
0.0
  0
SPLINE
  5
8ED
330
1E
100
AcDbEntity
  8
0
  6
HIDDEN
100
AcDbSpline
210
0.0
220
0.0
230
1.0
 70
     8
 71
     3
 72
    10
 73
     6
 74
     0
 42
0.0000000001
 43
0.0000000001
 40
0.0
 40
0.0
 40
0.0
 40
0.0
 40
0.5
 40
0.5
 40
1.0
 40
1.0
 40
1.0
 40
1.0
 10
1.160235313303509
 20
14.42774748663312
 30
0.0
 10
1.160235313303511
 20
14.42382049475232
 30
0.0
 10
1.161851910187294
 20
14.4199176846306
 30
0.0
 10
1.16740551536445
 20
14.41436407945344
 30
0.0
 10
1.171308325486171
 20
14.41274748256966
 30
0.0
 10
1.175235317366968
 20
14.41274748256966
 30
0.0
  0
SPLINE
  5
8EE
330
1E
100
AcDbEntity
  8
0
  6
HIDDEN
100
AcDbSpline
210
0.0
220
0.0
230
1.0
 70
     8
 71
     3
 72
    10
 73
     6
 74
     0
 42
0.0000000001
 43
0.0000000001
 40
0.0
 40
0.0
 40
0.0
 40
0.0
 40
0.5
 40
0.5
 40
1.0
 40
1.0
 40
1.0
 40
1.0
 10
1.235318276866895
 20
14.41274748460151
 30
0.0
 10
1.2300810931963
 20
14.41274748460151
 30
0.0
 10
1.224840087974529
 20
14.41274748663311
 30
0.0
 10
1.214641384800911
 20
14.41274748663311
 30
0.0
 10
1.209674419757664
 20
14.4127474866331
 30
0.0
 10
1.205276792713236
 20
14.4127474866331
 30
0.0
  0
LINE
  5
8EF
330
1E
100
AcDbEntity
  8
0
  6
Continuous
100
AcDbLine
 10
0.9732353121668353
 20
15.01774762408984
 30
0.0
 11
1.050235302656373
 21
15.01774762408984
 31
0.0
  0
LINE
  5
8F0
330
1E
100
AcDbEntity
  8
0
  6
HIDDEN
100
AcDbLine
 10
1.310235339113766
 20
14.66274740508267
 30
0.0
 11
1.310235339113766
 21
14.60074742797837
 31
0.0
  0
LINE
  5
8F1
330
1E
100
AcDbEntity
  8
0
  6
HIDDEN
100
AcDbLine
 10
1.160235205261445
 20
15.40074735964422
 30
0.0
 11
1.222235182365754
 21
15.40074735964422
 31
0.0
  0
LINE
  5
8F2
330
1E
100
AcDbEntity
  8
0
  6
HIDDEN
100
AcDbLine
 10
1.222235182365754
 20
15.40074735964422
 30
0.0
 11
1.222235182365754
 21
15.30074766151594
 31
0.0
  0
ARC
  5
8F3
330
1E
100
AcDbEntity
  8
0
  6
Continuous
100
AcDbCircle
 10
1.17523531736699
 20
20.15574748663309
 30
0.0
 40
0.0770000027005727
100
AcDbArc
 50
89.99999999998545
 51
168.7666563671722
  0
LINE
  5
8F4
330
1E
100
AcDbEntity
  8
0
  6
Continuous
100
AcDbLine
 10
1.323235428935619
 20
20.23274748663308
 30
0.0
 11
1.323235428935619
 21
20.32634748619123
 31
0.0
  0
LINE
  5
8F5
330
1E
100
AcDbEntity
  8
0
  6
Continuous
100
AcDbLine
 10
1.573235260916227
 20
20.32634748619123
 30
0.0
 11
1.573235260916227
 21
20.23274748663308
 31
0.0
  0
LINE
  5
8F6
330
1E
100
AcDbEntity
  8
0
  6
Continuous
100
AcDbLine
 10
1.175235218646678
 20
20.23274748933366
 30
0.0
 11
1.323235428935619
 21
20.23274748931932
 31
0.0
  0
ARC
  5
8F7
330
1E
100
AcDbEntity
  8
0
  6
Continuous
100
AcDbCircle
 10
1.17523531736699
 20
20.15574748663309
 30
0.0
 40
0.0770000027005727
100
AcDbArc
 50
168.7666563671722
 51
179.9999999998182
  0
ARC
  5
8F8
330
1E
100
AcDbEntity
  8
0
  6
HIDDEN
100
AcDbCircle
 10
1.175235317366992
 20
20.15574748528281
 30
0.0
 40
0.0150000040508545
100
AcDbArc
 50
89.99999999999571
 51
179.9999818263646
  0
LINE
  5
8F9
330
1E
100
AcDbEntity
  8
0
  6
Continuous
100
AcDbLine
 10
1.573235260916227
 20
20.23274748663308
 30
0.0
 11
1.323235428935619
 21
20.23274748663308
 31
0.0
  0
LINE
  5
8FA
330
1E
100
AcDbEntity
  8
0
  6
Continuous
100
AcDbLine
 10
1.323235428935619
 20
20.32634748619123
 30
0.0
 11
1.323235428935619
 21
20.58914747613666
 31
0.0
  0
LINE
  5
8FB
330
1E
100
AcDbEntity
  8
0
  6
HIDDEN
100
AcDbLine
 10
1.573235260916227
 20
20.31074748473712
 30
0.0
 11
1.323235428935619
 21
20.31074748473712
 31
0.0
  0
LINE
  5
8FC
330
1E
100
AcDbEntity
  8
0
  6
Continuous
100
AcDbLine
 10
1.573235260916227
 20
20.38874748284115
 30
0.0
 11
1.573235260916227
 21
20.32634748619123
 31
0.0
  0
LINE
  5
8FD
330
1E
100
AcDbEntity
  8
0
  6
Continuous
100
AcDbLine
 10
1.323235428935619
 20
20.68274748486137
 30
0.0
 11
1.448235344925922
 21
20.68274748486137
 31
0.0
  0
LINE
  5
8FE
330
1E
100
AcDbEntity
  8
0
  6
Continuous
100
AcDbLine
 10
1.448235344925922
 20
20.6047474959239
 30
0.0
 11
1.323235428935619
 21
20.6047474959239
 31
0.0
  0
LINE
  5
8FF
330
1E
100
AcDbEntity
  8
0
  6
Continuous
100
AcDbLine
 10
1.323235428935619
 20
20.6047474959239
 30
0.0
 11
1.323235428935619
 21
20.68274748486137
 31
0.0
  0
LINE
  5
900
330
1E
100
AcDbEntity
  8
0
  6
Continuous
100
AcDbLine
 10
1.323235428935619
 20
20.58914747613666
 30
0.0
 11
1.323235428935619
 21
20.6047474959239
 31
0.0
  0
SPLINE
  5
901
330
1E
100
AcDbEntity
  8
0
  6
HIDDEN
100
AcDbSpline
210
0.0
220
0.0
230
1.0
 70
    24
 71
     1
 72
     4
 73
     2
 74
     0
 42
0.0000000001
 43
0.0000000001
 40
0.0
 40
0.0
 40
1.0
 40
1.0
 10
2.416735436730217
 20
19.79574750489418
 30
0.0
 10
2.416735436730217
 20
19.16674745448976
 30
0.0
  0
SPLINE
  5
902
330
1E
100
AcDbEntity
  8
0
  6
HIDDEN
100
AcDbSpline
210
0.0
220
0.0
230
1.0
 70
    24
 71
     1
 72
     4
 73
     2
 74
     0
 42
0.0000000001
 43
0.0000000001
 40
0.0
 40
0.0
 40
1.0
 40
1.0
 10
2.731735277825173
 20
19.16674745448976
 30
0.0
 10
2.731735277825173
 20
19.79574750489418
 30
0.0
  0
ARC
  5
903
330
1E
100
AcDbEntity
  8
0
  6
HIDDEN
100
AcDbCircle
 10
2.772235317366984
 20
14.75074748663308
 30
0.0
 40
0.1500000000000021
100
AcDbArc
 50
270.0000000000008
 51
359.9999999999993
  0
ELLIPSE
  5
904
330
1E
100
AcDbEntity
  8
0
  6
HIDDEN
100
AcDbEllipse
 10
2.772235317366984
 20
14.75074748663308
 30
0.0
 11
0.1499999999999995
 21
-0.0000000000000036
 31
0.0
210
0.0
220
0.0
230
1.0
 40
0.5866666666666634
 41
4.712388980384711
 42
6.283185307179586
  0
ARC
  5
905
330
1E
100
AcDbEntity
  8
0
  6
HIDDEN
100
AcDbCircle
 10
2.822235317366983
 20
15.30074748663307
 30
0.0
 40
0.1000000000000014
100
AcDbArc
 50
0.0
 51
90.0
  0
LINE
  5
906
330
1E
100
AcDbEntity
  8
0
  6
HIDDEN
100
AcDbLine
 10
2.022235407361554
 20
14.75074756183068
 30
0.0
 11
2.022235407361554
 21
15.30074766151593
 31
0.0
  0
LINE
  5
907
330
1E
100
AcDbEntity
  8
0
  6
HIDDEN
100
AcDbLine
 10
2.772235343298294
 20
14.60074742797836
 30
0.0
 11
1.872235273509232
 21
14.60074742797836
 31
0.0
  0
LINE
  5
908
330
1E
100
AcDbEntity
  8
0
  6
HIDDEN
100
AcDbLine
 10
2.772235343298294
 20
14.66274740508267
 30
0.0
 11
1.872235273509232
 21
14.66274740508267
 31
0.0
  0
SPLINE
  5
909
330
1E
100
AcDbEntity
  8
0
  6
HIDDEN
100
AcDbSpline
210
0.0
220
0.0
230
1.0
 70
    24
 71
     1
 72
     4
 73
     2
 74
     0
 42
0.0000000001
 43
0.0000000001
 40
0.0
 40
0.0
 40
1.0
 40
1.0
 10
1.914235428319861
 20
14.25774733701135
 30
0.0
 10
1.914235428319861
 20
14.63274737831221
 30
0.0
  0
SPLINE
  5
90A
330
1E
100
AcDbEntity
  8
0
  6
HIDDEN
100
AcDbSpline
210
0.0
220
0.0
230
1.0
 70
    24
 71
     1
 72
     4
 73
     2
 74
     0
 42
0.0000000001
 43
0.0000000001
 40
0.0
 40
0.0
 40
1.0
 40
1.0
 10
1.718235292530154
 20
14.63274737831221
 30
0.0
 10
1.718235292530154
 20
14.25774733701135
 30
0.0
  0
LINE
  5
90B
330
1E
100
AcDbEntity
  8
0
  6
Continuous
100
AcDbLine
 10
1.916786518849445
 20
14.14176350353316
 30
0.0
 11
1.71568420200057
 21
14.14176350353316
 31
0.0
  0
LINE
  5
90C
330
1E
100
AcDbEntity
  8
0
  6
Continuous
100
AcDbLine
 10
2.023348887831865
 20
14.22475534480433
 30
0.0
 11
1.60912183301815
 21
14.22475534480433
 31
0.0
  0
ARC
  5
90D
330
1E
100
AcDbEntity
  8
0
  6
HIDDEN
100
AcDbCircle
 10
1.916235317366991
 20
14.2727474866331
 30
0.0
 40
0.0150000000000006
100
AcDbArc
 50
180.0
 51
270.0000000000008
  0
ARC
  5
90E
330
1E
100
AcDbEntity
  8
0
  6
HIDDEN
100
AcDbCircle
 10
1.916235317366991
 20
14.3127474866331
 30
0.0
 40
0.0150000000000006
100
AcDbArc
 50
90.0
 51
180.0
  0
ARC
  5
90F
330
1E
100
AcDbEntity
  8
0
  6
Continuous
100
AcDbCircle
 10
1.715684136264629
 20
14.22050339214491
 30
0.0
 40
0.0787401574803151
100
AcDbArc
 50
180.0
 51
270.0000000000008
  0
LINE
  5
910
330
1E
100
AcDbEntity
  8
0
  6
HIDDEN
100
AcDbLine
 10
1.895029356856703
 20
14.16474766468484
 30
0.0
 11
1.827251366500499
 21
14.16474766468484
 31
0.0
  0
LINE
  5
911
330
1E
100
AcDbEntity
  8
0
  6
HIDDEN
100
AcDbLine
 10
1.771304546136274
 20
14.16474766468484
 30
0.0
 11
1.726295706082236
 21
14.16474766468484
 31
0.0
  0
LINE
  5
912
330
1E
100
AcDbEntity
  8
0
  6
HIDDEN
100
AcDbLine
 10
1.737441363993312
 20
14.16474766468484
 30
0.0
 11
1.737441363993312
 21
14.14176350353316
 31
0.0
  0
LINE
  5
913
330
1E
100
AcDbEntity
  8
0
  6
HIDDEN
100
AcDbLine
 10
1.726295706082236
 20
14.16474766468484
 30
0.0
 11
1.726295706082236
 21
14.14176350353316
 31
0.0
  0
LINE
  5
914
330
1E
100
AcDbEntity
  8
0
  6
HIDDEN
100
AcDbLine
 10
1.804482509528277
 20
14.16474766468484
 30
0.0
 11
1.771304546136274
 21
14.16474766468484
 31
0.0
  0
LINE
  5
915
330
1E
100
AcDbEntity
  8
0
  6
HIDDEN
100
AcDbLine
 10
1.804482509528277
 20
14.16474766468484
 30
0.0
 11
1.804482509528277
 21
14.14176350353316
 31
0.0
  0
LINE
  5
916
330
1E
100
AcDbEntity
  8
0
  6
HIDDEN
100
AcDbLine
 10
1.827251366500499
 20
14.16474766468484
 30
0.0
 11
1.804482509528277
 21
14.16474766468484
 31
0.0
  0
LINE
  5
917
330
1E
100
AcDbEntity
  8
0
  6
HIDDEN
100
AcDbLine
 10
1.794073403108496
 20
14.16474766468484
 30
0.0
 11
1.794073403108496
 21
14.14176350353316
 31
0.0
  0
LINE
  5
918
330
1E
100
AcDbEntity
  8
0
  6
HIDDEN
100
AcDbLine
 10
1.771304546136274
 20
14.16474766468484
 30
0.0
 11
1.771304546136274
 21
14.14176350353316
 31
0.0
  0
LINE
  5
919
330
1E
100
AcDbEntity
  8
0
  6
HIDDEN
100
AcDbLine
 10
1.827251366500499
 20
14.16474766468484
 30
0.0
 11
1.827251366500499
 21
14.14176350353316
 31
0.0
  0
LINE
  5
91A
330
1E
100
AcDbEntity
  8
0
  6
HIDDEN
100
AcDbLine
 10
1.838397024411573
 20
14.16474766468484
 30
0.0
 11
1.838397024411573
 21
14.14176350353316
 31
0.0
  0
LINE
  5
91B
330
1E
100
AcDbEntity
  8
0
  6
HIDDEN
100
AcDbLine
 10
1.805219061019572
 20
14.16474766468484
 30
0.0
 11
1.805219061019572
 21
14.14176350353316
 31
0.0
  0
LINE
  5
91C
330
1E
100
AcDbEntity
  8
0
  6
HIDDEN
100
AcDbLine
 10
1.827987917991793
 20
14.16474766468484
 30
0.0
 11
1.827987917991793
 21
14.14176350353316
 31
0.0
  0
LINE
  5
91D
330
1E
100
AcDbEntity
  8
0
  6
HIDDEN
100
AcDbLine
 10
1.895029356856703
 20
14.16474766468484
 30
0.0
 11
1.895029356856703
 21
14.14176350353316
 31
0.0
  0
LINE
  5
91E
330
1E
100
AcDbEntity
  8
0
  6
HIDDEN
100
AcDbLine
 10
1.906175014767779
 20
14.16474766468484
 30
0.0
 11
1.895029356856703
 21
14.16474766468484
 31
0.0
  0
LINE
  5
91F
330
1E
100
AcDbEntity
  8
0
  6
HIDDEN
100
AcDbLine
 10
1.906175014767779
 20
14.16474766468484
 30
0.0
 11
1.906175014767779
 21
14.14176350353316
 31
0.0
  0
LINE
  5
920
330
1E
100
AcDbEntity
  8
0
  6
HIDDEN
100
AcDbLine
 10
1.861165881383795
 20
14.16474766468484
 30
0.0
 11
1.861165881383795
 21
14.14176350353316
 31
0.0
  0
SPLINE
  5
921
330
1E
100
AcDbEntity
  8
0
  6
Continuous
100
AcDbSpline
210
0.0
220
0.0
230
1.0
 70
    24
 71
     1
 72
     4
 73
     2
 74
     0
 42
0.0000000001
 43
0.0000000001
 40
0.0
 40
0.0
 40
1.0
 40
1.0
 10
1.606235173031759
 20
14.25774733701135
 30
0.0
 10
1.60912183301815
 20
14.22475534480433
 30
0.0
  0
SPLINE
  5
922
330
1E
100
AcDbEntity
  8
0
  6
HIDDEN
100
AcDbSpline
210
0.0
220
0.0
230
1.0
 70
    24
 71
     1
 72
     4
 73
     2
 74
     0
 42
0.0000000001
 43
0.0000000001
 40
0.0
 40
0.0
 40
1.0
 40
1.0
 10
1.701235355581543
 20
14.38974757213337
 30
0.0
 10
1.701235355581543
 20
14.32774759502907
 30
0.0
  0
SPLINE
  5
923
330
1E
100
AcDbEntity
  8
0
  6
Continuous
100
AcDbSpline
210
0.0
220
0.0
230
1.0
 70
    24
 71
     1
 72
     4
 73
     2
 74
     0
 42
0.0000000001
 43
0.0000000001
 40
0.0
 40
0.0
 40
1.0
 40
1.0
 10
1.636943884948765
 20
14.22475534480433
 30
0.0
 10
1.636943884948765
 20
14.22050323392507
 30
0.0
  0
ARC
  5
924
330
1E
100
AcDbEntity
  8
0
  6
HIDDEN
100
AcDbCircle
 10
1.71623531736699
 20
14.2727474866331
 30
0.0
 40
0.0150000000000006
100
AcDbArc
 50
270.0000000000008
 51
0.0
  0
ARC
  5
925
330
1E
100
AcDbEntity
  8
0
  6
HIDDEN
100
AcDbCircle
 10
1.71623531736699
 20
14.3127474866331
 30
0.0
 40
0.0150000000000006
100
AcDbArc
 50
0.0
 51
90.0
  0
SPLINE
  5
926
330
1E
100
AcDbEntity
  8
0
  6
HIDDEN
100
AcDbSpline
210
0.0
220
0.0
230
1.0
 70
    24
 71
     1
 72
     4
 73
     2
 74
     0
 42
0.0000000001
 43
0.0000000001
 40
0.0
 40
0.0
 40
1.0
 40
1.0
 10
1.731235382352007
 20
14.31274728831389
 30
0.0
 10
1.731235382352007
 20
14.27274764372653
 30
0.0
  0
SPLINE
  5
927
330
1E
100
AcDbEntity
  8
0
  6
HIDDEN
100
AcDbSpline
210
0.0
220
0.0
230
1.0
 70
    24
 71
     1
 72
     4
 73
     2
 74
     0
 42
0.0000000001
 43
0.0000000001
 40
0.0
 40
0.0
 40
1.0
 40
1.0
 10
1.901235338498008
 20
14.27274764372653
 30
0.0
 10
1.901235338498008
 20
14.31274728831389
 30
0.0
  0
ARC
  5
928
330
1E
100
AcDbEntity
  8
0
  6
Continuous
100
AcDbCircle
 10
2.051235317366991
 20
14.2727474866331
 30
0.0
 40
0.0150000000000006
100
AcDbArc
 50
270.0000000000008
 51
0.0
  0
ARC
  5
929
330
1E
100
AcDbEntity
  8
0
  6
Continuous
100
AcDbCircle
 10
2.051235317366991
 20
14.3127474866331
 30
0.0
 40
0.0150000000000006
100
AcDbArc
 50
0.0
 51
90.0
  0
ARC
  5
92A
330
1E
100
AcDbEntity
  8
0
  6
Continuous
100
AcDbCircle
 10
1.916786498469353
 20
14.22050339214491
 30
0.0
 40
0.0787401574803151
100
AcDbArc
 50
270.0000000000008
 51
0.0
  0
SPLINE
  5
92B
330
1E
100
AcDbEntity
  8
0
  6
HIDDEN
100
AcDbSpline
210
0.0
220
0.0
230
1.0
 70
    24
 71
     1
 72
     4
 73
     2
 74
     0
 42
0.0000000001
 43
0.0000000001
 40
0.0
 40
0.0
 40
1.0
 40
1.0
 10
1.931235365268472
 20
14.32774759502907
 30
0.0
 10
1.931235365268472
 20
14.38974757213337
 30
0.0
  0
SPLINE
  5
92C
330
1E
100
AcDbEntity
  8
0
  6
Continuous
100
AcDbSpline
210
0.0
220
0.0
230
1.0
 70
    24
 71
     1
 72
     4
 73
     2
 74
     0
 42
0.0000000001
 43
0.0000000001
 40
0.0
 40
0.0
 40
1.0
 40
1.0
 10
2.023348887831865
 20
14.22475534480433
 30
0.0
 10
2.026235254488312
 20
14.25774733701135
 30
0.0
  0
SPLINE
  5
92D
330
1E
100
AcDbEntity
  8
0
  6
Continuous
100
AcDbSpline
210
0.0
220
0.0
230
1.0
 70
    24
 71
     1
 72
     4
 73
     2
 74
     0
 42
0.0000000001
 43
0.0000000001
 40
0.0
 40
0.0
 40
1.0
 40
1.0
 10
1.995526542571305
 20
14.22050323392507
 30
0.0
 10
1.995526542571305
 20
14.22475534480433
 30
0.0
  0
SPLINE
  5
92E
330
1E
100
AcDbEntity
  8
0
  6
Continuous
100
AcDbSpline
210
0.0
220
0.0
230
1.0
 70
    24
 71
     1
 72
     4
 73
     2
 74
     0
 42
0.0000000001
 43
0.0000000001
 40
0.0
 40
0.0
 40
1.0
 40
1.0
 10
2.066235192405615
 20
14.27274764372653
 30
0.0
 10
2.066235192405615
 20
14.31274728831389
 30
0.0
  0
LINE
  5
92F
330
1E
100
AcDbEntity
  8
0
  6
HIDDEN
100
AcDbLine
 10
2.003735381075436
 20
14.66231738338365
 30
0.0
 11
1.62873533977458
 21
14.66231738338365
 31
0.0
  0
LINE
  5
930
330
1E
100
AcDbEntity
  8
0
  6
HIDDEN
100
AcDbLine
 10
1.923614066643697
 20
14.63274737831221
 30
0.0
 11
1.641235302040616
 21
14.63274737831221
 31
0.0
  0
LINE
  5
931
330
1E
100
AcDbEntity
  8
0
  6
HIDDEN
100
AcDbLine
 10
1.923614066643697
 20
14.65774730284428
 30
0.0
 11
1.641235302040616
 21
14.65774730284428
 31
0.0
  0
LINE
  5
932
330
1E
100
AcDbEntity
  8
0
  6
HIDDEN
100
AcDbLine
 10
1.785027694271963
 20
14.66384973901508
 30
0.0
 11
1.914235428319861
 21
14.66384973901508
 31
0.0
  0
LINE
  5
933
330
1E
100
AcDbEntity
  8
0
  6
HIDDEN
100
AcDbLine
 10
1.936235174176919
 20
14.75230690381703
 30
0.0
 11
1.696235253343152
 21
14.75230690381703
 31
0.0
  0
ARC
  5
934
330
1E
100
AcDbEntity
  8
0
  6
HIDDEN
100
AcDbCircle
 10
1.872235317366985
 20
14.75074748663308
 30
0.0
 40
0.1500000000000021
100
AcDbArc
 50
270.000000000001
 51
359.9999999999993
  0
ELLIPSE
  5
935
330
1E
100
AcDbEntity
  8
0
  6
HIDDEN
100
AcDbEllipse
 10
1.872235317366985
 20
14.75074748663308
 30
0.0
 11
0.1499999999999986
 21
-0.0000000000000036
 31
0.0
210
0.0
220
0.0
230
1.0
 40
0.5866666666666787
 41
4.712388980384716
 42
6.283185307179586
  0
ARC
  5
936
330
1E
100
AcDbEntity
  8
0
  6
HIDDEN
100
AcDbCircle
 10
2.00373531736699
 20
14.71024748663308
 30
0.0
 40
0.1095000000000006
100
AcDbArc
 50
180.0
 51
270.0000000000008
  0
LINE
  5
937
330
1E
100
AcDbEntity
  8
0
  6
HIDDEN
100
AcDbLine
 10
1.914235428319861
 20
14.98577876673015
 30
0.0
 11
1.718235292530154
 21
14.98577876673015
 31
0.0
  0
SPLINE
  5
938
330
1E
100
AcDbEntity
  8
0
  6
HIDDEN
100
AcDbSpline
210
0.0
220
0.0
230
1.0
 70
    24
 71
     1
 72
     4
 73
     2
 74
     0
 42
0.0000000001
 43
0.0000000001
 40
0.0
 40
0.0
 40
1.0
 40
1.0
 10
1.914235428319861
 20
14.98577876673015
 30
0.0
 10
1.894235312696237
 20
15.00577917568372
 30
0.0
  0
SPLINE
  5
939
330
1E
100
AcDbEntity
  8
0
  6
HIDDEN
100
AcDbSpline
210
0.0
220
0.0
230
1.0
 70
    24
 71
     1
 72
     4
 73
     2
 74
     0
 42
0.0000000001
 43
0.0000000001
 40
0.0
 40
0.0
 40
1.0
 40
1.0
 10
1.718235292530154
 20
14.98577876673015
 30
0.0
 10
1.718235292530154
 20
14.66384973901508
 30
0.0
  0
ARC
  5
93A
330
1E
100
AcDbEntity
  8
0
  6
HIDDEN
100
AcDbCircle
 10
1.62873531736699
 20
14.72981750442816
 30
0.0
 40
0.0675000000000026
100
AcDbArc
 50
270.0000000000008
 51
0.0
  0
ARC
  5
93B
330
1E
100
AcDbEntity
  8
0
  6
HIDDEN
100
AcDbCircle
 10
1.62873531736699
 20
14.71024748663308
 30
0.0
 40
0.1095000000000006
100
AcDbArc
 50
270.0000000000008
 51
0.0
  0
SPLINE
  5
93C
330
1E
100
AcDbEntity
  8
0
  6
HIDDEN
100
AcDbSpline
210
0.0
220
0.0
230
1.0
 70
    24
 71
     1
 72
     4
 73
     2
 74
     0
 42
0.0000000001
 43
0.0000000001
 40
0.0
 40
0.0
 40
1.0
 40
1.0
 10
1.62873533977458
 20
14.66274740508267
 30
0.0
 10
1.62873533977458
 20
14.66231738338365
 30
0.0
  0
LINE
  5
93D
330
1E
100
AcDbEntity
  8
0
  6
HIDDEN
100
AcDbLine
 10
1.718235292530154
 20
14.66384973901508
 30
0.0
 11
1.785027694271963
 21
14.66384973901508
 31
0.0
  0
SPLINE
  5
93E
330
1E
100
AcDbEntity
  8
0
  6
HIDDEN
100
AcDbSpline
210
0.0
220
0.0
230
1.0
 70
    24
 71
     1
 72
     4
 73
     2
 74
     0
 42
0.0000000001
 43
0.0000000001
 40
0.0
 40
0.0
 40
1.0
 40
1.0
 10
1.641235302040616
 20
14.65774730284428
 30
0.0
 10
1.641235302040616
 20
14.63274737831221
 30
0.0
  0
SPLINE
  5
93F
330
1E
100
AcDbEntity
  8
0
  6
HIDDEN
100
AcDbSpline
210
0.0
220
0.0
230
1.0
 70
    24
 71
     1
 72
     4
 73
     2
 74
     0
 42
0.0000000001
 43
0.0000000001
 40
0.0
 40
0.0
 40
1.0
 40
1.0
 10
1.714682773569156
 20
14.65774730284428
 30
0.0
 10
1.714682773569156
 20
14.63274737831221
 30
0.0
  0
LINE
  5
940
330
1E
100
AcDbEntity
  8
0
  6
HIDDEN
100
AcDbLine
 10
1.80075017931114
 20
14.63274737831221
 30
0.0
 11
1.80075017931114
 21
14.65774730284428
 31
0.0
  0
LINE
  5
941
330
1E
100
AcDbEntity
  8
0
  6
HIDDEN
100
AcDbLine
 10
1.752289139137213
 20
14.63274737831221
 30
0.0
 11
1.752289139137213
 21
14.65774730284428
 31
0.0
  0
SPLINE
  5
942
330
1E
100
AcDbEntity
  8
0
  6
HIDDEN
100
AcDbSpline
210
0.0
220
0.0
230
1.0
 70
    24
 71
     1
 72
     4
 73
     2
 74
     0
 42
0.0000000001
 43
0.0000000001
 40
0.0
 40
0.0
 40
1.0
 40
1.0
 10
1.742731276217128
 20
14.65774730284428
 30
0.0
 10
1.742731276217128
 20
14.63274737831221
 30
0.0
  0
SPLINE
  5
943
330
1E
100
AcDbEntity
  8
0
  6
HIDDEN
100
AcDbSpline
210
0.0
220
0.0
230
1.0
 70
    24
 71
     1
 72
     4
 73
     2
 74
     0
 42
0.0000000001
 43
0.0000000001
 40
0.0
 40
0.0
 40
1.0
 40
1.0
 10
1.742219708793465
 20
14.66384973901508
 30
0.0
 10
1.742219708793465
 20
14.63274737831221
 30
0.0
  0
SPLINE
  5
944
330
1E
100
AcDbEntity
  8
0
  6
HIDDEN
100
AcDbSpline
210
0.0
220
0.0
230
1.0
 70
    24
 71
     1
 72
     4
 73
     2
 74
     0
 42
0.0000000001
 43
0.0000000001
 40
0.0
 40
0.0
 40
1.0
 40
1.0
 10
1.696235253343152
 20
14.75230690381703
 30
0.0
 10
1.696235253343152
 20
14.72981729695222
 30
0.0
  0
SPLINE
  5
945
330
1E
100
AcDbEntity
  8
0
  6
HIDDEN
100
AcDbSpline
210
0.0
220
0.0
230
1.0
 70
    24
 71
     1
 72
     4
 73
     2
 74
     0
 42
0.0000000001
 43
0.0000000001
 40
0.0
 40
0.0
 40
1.0
 40
1.0
 10
1.738235408153778
 20
14.75230690381703
 30
0.0
 10
1.738235408153778
 20
14.71024749635756
 30
0.0
  0
LINE
  5
946
330
1E
100
AcDbEntity
  8
0
  6
HIDDEN
100
AcDbLine
 10
1.865520951073659
 20
14.63274737831221
 30
0.0
 11
1.865520951073659
 21
14.65774730284428
 31
0.0
  0
LINE
  5
947
330
1E
100
AcDbEntity
  8
0
  6
HIDDEN
100
AcDbLine
 10
1.872235273509232
 20
14.66274740508267
 30
0.0
 11
1.872235273509232
 21
14.60074742797836
 31
0.0
  0
SPLINE
  5
948
330
1E
100
AcDbEntity
  8
0
  6
HIDDEN
100
AcDbSpline
210
0.0
220
0.0
230
1.0
 70
    24
 71
     1
 72
     4
 73
     2
 74
     0
 42
0.0000000001
 43
0.0000000001
 40
0.0
 40
0.0
 40
1.0
 40
1.0
 10
1.89025101205655
 20
14.63274737831221
 30
0.0
 10
1.89025101205655
 20
14.66384973901508
 30
0.0
  0
SPLINE
  5
949
330
1E
100
AcDbEntity
  8
0
  6
HIDDEN
100
AcDbSpline
210
0.0
220
0.0
230
1.0
 70
    24
 71
     1
 72
     4
 73
     2
 74
     0
 42
0.0000000001
 43
0.0000000001
 40
0.0
 40
0.0
 40
1.0
 40
1.0
 10
1.894235312696237
 20
14.71024749635756
 30
0.0
 10
1.894235312696237
 20
14.75230690381703
 30
0.0
  0
LINE
  5
94A
330
1E
100
AcDbEntity
  8
0
  6
HIDDEN
100
AcDbLine
 10
1.738235408153778
 20
15.00577917568372
 30
0.0
 11
1.894235312696237
 21
15.00577917568372
 31
0.0
  0
SPLINE
  5
94B
330
1E
100
AcDbEntity
  8
0
  6
HIDDEN
100
AcDbSpline
210
0.0
220
0.0
230
1.0
 70
    24
 71
     1
 72
     4
 73
     2
 74
     0
 42
0.0000000001
 43
0.0000000001
 40
0.0
 40
0.0
 40
1.0
 40
1.0
 10
1.738235408153778
 20
15.00577917568372
 30
0.0
 10
1.718235292530154
 20
14.98577876673015
 30
0.0
  0
SPLINE
  5
94C
330
1E
100
AcDbEntity
  8
0
  6
HIDDEN
100
AcDbSpline
210
0.0
220
0.0
230
1.0
 70
    24
 71
     1
 72
     4
 73
     2
 74
     0
 42
0.0000000001
 43
0.0000000001
 40
0.0
 40
0.0
 40
1.0
 40
1.0
 10
1.914235428319861
 20
14.66384973901508
 30
0.0
 10
1.914235428319861
 20
14.98577876673015
 30
0.0
  0
ARC
  5
94D
330
1E
100
AcDbEntity
  8
0
  6
HIDDEN
100
AcDbCircle
 10
2.00373531736699
 20
14.72981750442816
 30
0.0
 40
0.0675000000000026
100
AcDbArc
 50
180.0
 51
270.0000000000008
  0
LINE
  5
94E
330
1E
100
AcDbEntity
  8
0
  6
HIDDEN
100
AcDbLine
 10
1.931220405441289
 20
14.63274737831221
 30
0.0
 11
1.931220405441289
 21
14.65774730284428
 31
0.0
  0
LINE
  5
94F
330
1E
100
AcDbEntity
  8
0
  6
HIDDEN
100
AcDbLine
 10
1.931220405441289
 20
14.63274737831221
 30
0.0
 11
1.923614066643697
 21
14.63274737831221
 31
0.0
  0
LINE
  5
950
330
1E
100
AcDbEntity
  8
0
  6
HIDDEN
100
AcDbLine
 10
1.931220405441289
 20
14.65774730284428
 30
0.0
 11
1.923614066643697
 21
14.65774730284428
 31
0.0
  0
SPLINE
  5
951
330
1E
100
AcDbEntity
  8
0
  6
HIDDEN
100
AcDbSpline
210
0.0
220
0.0
230
1.0
 70
    24
 71
     1
 72
     4
 73
     2
 74
     0
 42
0.0000000001
 43
0.0000000001
 40
0.0
 40
0.0
 40
1.0
 40
1.0
 10
2.003735381075436
 20
14.66231738338365
 30
0.0
 10
2.003735381075436
 20
14.66274740508267
 30
0.0
  0
SPLINE
  5
952
330
1E
100
AcDbEntity
  8
0
  6
HIDDEN
100
AcDbSpline
210
0.0
220
0.0
230
1.0
 70
    24
 71
     1
 72
     4
 73
     2
 74
     0
 42
0.0000000001
 43
0.0000000001
 40
0.0
 40
0.0
 40
1.0
 40
1.0
 10
1.936235174176919
 20
14.72981729695222
 30
0.0
 10
1.936235174176919
 20
14.75230690381703
 30
0.0
  0
LINE
  5
953
330
1E
100
AcDbEntity
  8
0
  6
HIDDEN
100
AcDbLine
 10
2.772235343298294
 20
14.66274740508267
 30
0.0
 11
2.772235343298294
 21
14.60074742797836
 31
0.0
  0
LINE
  5
954
330
1E
100
AcDbEntity
  8
0
  6
HIDDEN
100
AcDbLine
 10
2.122235398819785
 20
15.40074735964422
 30
0.0
 11
2.822235339027409
 21
15.40074735964422
 31
0.0
  0
CIRCLE
  5
955
330
1E
100
AcDbEntity
  8
0
  6
HIDDEN
100
AcDbCircle
 10
2.348235317366967
 20
15.78774748663331
 30
0.0
 40
0.1440000000000001
  0
CIRCLE
  5
956
330
1E
100
AcDbEntity
  8
0
  6
HIDDEN
100
AcDbCircle
 10
2.348235317366967
 20
15.78774748663331
 30
0.0
 40
0.1180000000000003
  0
ARC
  5
957
330
1E
100
AcDbEntity
  8
0
  6
HIDDEN
100
AcDbCircle
 10
2.122235317366984
 20
15.30074748663307
 30
0.0
 40
0.1000000000000014
100
AcDbArc
 50
90.0
 51
180.0
  0
LINE
  5
958
330
1E
100
AcDbEntity
  8
0
  6
HIDDEN
100
AcDbLine
 10
2.922235330485641
 20
14.75074756183068
 30
0.0
 11
2.922235330485641
 21
15.30074766151593
 31
0.0
  0
LINE
  5
959
330
1E
100
AcDbEntity
  8
0
  6
HIDDEN
100
AcDbLine
 10
2.416735436730217
 20
19.16674745448976
 30
0.0
 11
2.574235283945208
 21
19.16674745448976
 31
0.0
  0
LINE
  5
95A
330
1E
100
AcDbEntity
  8
0
  6
HIDDEN
100
AcDbLine
 10
2.574235283945208
 20
19.16674745448976
 30
0.0
 11
2.731735277825173
 21
19.16674745448976
 31
0.0
  0
LINE
  5
95B
330
1E
100
AcDbEntity
  8
0
  6
HIDDEN
100
AcDbLine
 10
6.7357353699411
 20
19.71774747929045
 30
0.0
 11
3.330735264792874
 21
19.71774747929045
 31
0.0
  0
LINE
  5
95C
330
1E
100
AcDbEntity
  8
0
  6
HIDDEN
100
AcDbLine
 10
6.7357353699411
 20
19.79574750489418
 30
0.0
 11
3.330735264792874
 21
19.79574750489418
 31
0.0
  0
LINE
  5
95D
330
1E
100
AcDbEntity
  8
0
  6
HIDDEN
100
AcDbLine
 10
3.205735348802571
 20
19.79574750489418
 30
0.0
 11
2.769735292179097
 21
19.79574750489418
 31
0.0
  0
LINE
  5
95E
330
1E
100
AcDbEntity
  8
0
  6
HIDDEN
100
AcDbLine
 10
3.205735348802571
 20
19.71774747929045
 30
0.0
 11
2.769735292179097
 21
19.71774747929045
 31
0.0
  0
LINE
  5
95F
330
1E
100
AcDbEntity
  8
0
  6
HIDDEN
100
AcDbLine
 10
2.33350511821396
 20
19.79574750489418
 30
0.0
 11
2.205735287555279
 21
19.79574750489418
 31
0.0
  0
LINE
  5
960
330
1E
100
AcDbEntity
  8
0
  6
HIDDEN
100
AcDbLine
 10
2.375735243701278
 20
19.71774747929045
 30
0.0
 11
2.205735287555279
 21
19.71774747929045
 31
0.0
  0
LINE
  5
961
330
1E
100
AcDbEntity
  8
0
  6
Continuous
100
AcDbLine
 10
2.323235343517939
 20
20.23274748663308
 30
0.0
 11
2.073235218207386
 21
20.23274748663308
 31
0.0
  0
LINE
  5
962
330
1E
100
AcDbEntity
  8
0
  6
HIDDEN
100
AcDbLine
 10
2.323235343517939
 20
20.31074748473712
 30
0.0
 11
2.073235218207386
 21
20.31074748473712
 31
0.0
  0
LINE
  5
963
330
1E
100
AcDbEntity
  8
0
  6
Continuous
100
AcDbLine
 10
2.198235427527635
 20
20.68274748486137
 30
0.0
 11
2.323235343517939
 21
20.68274748486137
 31
0.0
  0
LINE
  5
964
330
1E
100
AcDbEntity
  8
0
  6
Continuous
100
AcDbLine
 10
2.323235343517939
 20
20.6047474959239
 30
0.0
 11
2.198235427527635
 21
20.6047474959239
 31
0.0
  0
LINE
  5
965
330
1E
100
AcDbEntity
  8
0
  6
Continuous
100
AcDbLine
 10
1.69823517690653
 20
20.38874748284115
 30
0.0
 11
1.69823517690653
 21
20.10774748814374
 31
0.0
  0
LINE
  5
966
330
1E
100
AcDbEntity
  8
0
  6
Continuous
100
AcDbLine
 10
1.948235302217083
 20
20.10774748814374
 30
0.0
 11
1.948235302217083
 21
20.38874748284115
 31
0.0
  0
SPLINE
  5
967
330
1E
100
AcDbEntity
  8
0
  6
HIDDEN
100
AcDbSpline
210
0.0
220
0.0
230
1.0
 70
    24
 71
     1
 72
     4
 73
     2
 74
     0
 42
0.0000000001
 43
0.0000000001
 40
0.0
 40
0.0
 40
1.0
 40
1.0
 10
1.604735377024198
 20
20.31074748473713
 30
0.0
 10
1.604735377024198
 20
20.23274748663309
 30
0.0
  0
SPLINE
  5
968
330
1E
100
AcDbEntity
  8
0
  6
HIDDEN
100
AcDbSpline
210
0.0
220
0.0
230
1.0
 70
    24
 71
     1
 72
     4
 73
     2
 74
     0
 42
0.0000000001
 43
0.0000000001
 40
0.0
 40
0.0
 40
1.0
 40
1.0
 10
2.041735395429361
 20
20.23274748663309
 30
0.0
 10
2.041735395429361
 20
20.31074748473713
 30
0.0
  0
LINE
  5
969
330
1E
100
AcDbEntity
  8
0
  6
Continuous
100
AcDbLine
 10
2.073235218207386
 20
20.23274748663308
 30
0.0
 11
2.073235218207386
 21
20.32634748619123
 31
0.0
  0
ARC
  5
96A
330
1E
100
AcDbEntity
  8
0
  6
Continuous
100
AcDbCircle
 10
1.823235317366986
 20
20.10774748663308
 30
0.0
 40
0.125
100
AcDbArc
 50
270.0000000000008
 51
0.0
  0
LINE
  5
96B
330
1E
100
AcDbEntity
  8
0
  6
HIDDEN
100
AcDbLine
 10
1.69823517690653
 20
20.23274748663308
 30
0.0
 11
1.948235302217083
 21
20.23274748663308
 31
0.0
  0
SPLINE
  5
96C
330
1E
100
AcDbEntity
  8
0
  6
HIDDEN
100
AcDbSpline
210
0.0
220
0.0
230
1.0
 70
    24
 71
     1
 72
     4
 73
     2
 74
     0
 42
0.0000000001
 43
0.0000000001
 40
0.0
 40
0.0
 40
1.0
 40
1.0
 10
1.626235288655383
 20
20.23274748663309
 30
0.0
 10
1.626235288655383
 20
20.17074748661238
 30
0.0
  0
ARC
  5
96D
330
1E
100
AcDbEntity
  8
0
  6
Continuous
100
AcDbCircle
 10
1.823235317366986
 20
20.10774748663308
 30
0.0
 40
0.1250000000000004
100
AcDbArc
 50
180.0
 51
270.0000000000008
  0
SPLINE
  5
96E
330
1E
100
AcDbEntity
  8
0
  6
HIDDEN
100
AcDbSpline
210
0.0
220
0.0
230
1.0
 70
    24
 71
     1
 72
     4
 73
     2
 74
     0
 42
0.0000000001
 43
0.0000000001
 40
0.0
 40
0.0
 40
1.0
 40
1.0
 10
2.02023519046823
 20
20.17074748661238
 30
0.0
 10
2.02023519046823
 20
20.23274748663309
 30
0.0
  0
LINE
  5
96F
330
1E
100
AcDbEntity
  8
0
  6
HIDDEN
100
AcDbLine
 10
2.080735371564975
 20
19.79574750489418
 30
0.0
 11
2.205735287555279
 21
19.79574750489418
 31
0.0
  0
LINE
  5
970
330
1E
100
AcDbEntity
  8
0
  6
HIDDEN
100
AcDbLine
 10
2.205735287555279
 20
19.71774747929045
 30
0.0
 11
2.080735371564975
 21
19.71774747929045
 31
0.0
  0
LINE
  5
971
330
1E
100
AcDbEntity
  8
0
  6
HIDDEN
100
AcDbLine
 10
2.080735371564975
 20
19.71774747929045
 30
0.0
 11
2.080735371564975
 21
19.79574750489418
 31
0.0
  0
LINE
  5
972
330
1E
100
AcDbEntity
  8
0
  6
HIDDEN
100
AcDbLine
 10
2.205735287555279
 20
19.79574750489418
 30
0.0
 11
2.205735287555279
 21
19.71774747929045
 31
0.0
  0
LINE
  5
973
330
1E
100
AcDbEntity
  8
0
  6
Continuous
100
AcDbLine
 10
1.948235302217083
 20
20.23274748663308
 30
0.0
 11
2.073235218207386
 21
20.23274748924666
 31
0.0
  0
LINE
  5
974
330
1E
100
AcDbEntity
  8
0
  6
HIDDEN
100
AcDbLine
 10
1.69823517690653
 20
20.31074748473712
 30
0.0
 11
1.948235302217083
 21
20.31074748473712
 31
0.0
  0
LINE
  5
975
330
1E
100
AcDbEntity
  8
0
  6
HIDDEN
100
AcDbLine
 10
1.604735377024198
 20
20.68274748486138
 30
0.0
 11
1.604735377024198
 21
20.6047474959239
 31
0.0
  0
ARC
  5
976
330
1E
100
AcDbEntity
  8
0
  6
Continuous
100
AcDbCircle
 10
2.010735317366986
 20
20.38874748663309
 30
0.0
 40
0.0625
100
AcDbArc
 50
0.0
 51
180.0
  0
LINE
  5
977
330
1E
100
AcDbEntity
  8
0
  6
Continuous
100
AcDbLine
 10
1.948235302217083
 20
20.31074748473712
 30
0.0
 11
2.073235218207386
 21
20.31074748473712
 31
0.0
  0
LINE
  5
978
330
1E
100
AcDbEntity
  8
0
  6
HIDDEN
100
AcDbLine
 10
2.041735395429361
 20
20.68274748486138
 30
0.0
 11
2.041735395429361
 21
20.6047474959239
 31
0.0
  0
LINE
  5
979
330
1E
100
AcDbEntity
  8
0
  6
Continuous
100
AcDbLine
 10
2.073235218207386
 20
20.38874748284115
 30
0.0
 11
2.073235218207386
 21
20.32634748619123
 31
0.0
  0
LINE
  5
97A
330
1E
100
AcDbEntity
  8
0
  6
Continuous
100
AcDbLine
 10
2.323235343517939
 20
20.23274748663308
 30
0.0
 11
2.323235343517939
 21
20.32634748619123
 31
0.0
  0
LINE
  5
97B
330
1E
100
AcDbEntity
  8
0
  6
HIDDEN
100
AcDbLine
 10
2.769735292179097
 20
19.71774747929045
 30
0.0
 11
2.375735243701278
 21
19.71774747929045
 31
0.0
  0
LINE
  5
97C
330
1E
100
AcDbEntity
  8
0
  6
HIDDEN
100
AcDbLine
 10
2.33350511821396
 20
19.79574750489418
 30
0.0
 11
2.574235283945208
 21
19.79574750489418
 31
0.0
  0
SPLINE
  5
97D
330
1E
100
AcDbEntity
  8
0
  6
HIDDEN
100
AcDbSpline
210
0.0
220
0.0
230
1.0
 70
    24
 71
     1
 72
     4
 73
     2
 74
     0
 42
0.0000000001
 43
0.0000000001
 40
0.0
 40
0.0
 40
1.0
 40
1.0
 10
2.294235278529164
 20
20.17074748661238
 30
0.0
 10
2.294235278529164
 20
19.79574750489418
 30
0.0
  0
LINE
  5
97E
330
1E
100
AcDbEntity
  8
0
  6
HIDDEN
100
AcDbLine
 10
2.375735243701278
 20
19.79574750489418
 30
0.0
 11
2.375735243701278
 21
19.71774747929045
 31
0.0
  0
SPLINE
  5
97F
330
1E
100
AcDbEntity
  8
0
  6
HIDDEN
100
AcDbSpline
210
0.0
220
0.0
230
1.0
 70
    24
 71
     1
 72
     4
 73
     2
 74
     0
 42
0.0000000001
 43
0.0000000001
 40
0.0
 40
0.0
 40
1.0
 40
1.0
 10
2.380735345939671
 20
19.79574750489418
 30
0.0
 10
2.380735345939671
 20
19.71774747929046
 30
0.0
  0
SPLINE
  5
980
330
1E
100
AcDbEntity
  8
0
  6
HIDDEN
100
AcDbSpline
210
0.0
220
0.0
230
1.0
 70
    24
 71
     1
 72
     4
 73
     2
 74
     0
 42
0.0000000001
 43
0.0000000001
 40
0.0
 40
0.0
 40
1.0
 40
1.0
 10
2.427735309658746
 20
19.79574750489418
 30
0.0
 10
2.427735309658746
 20
19.71774747929046
 30
0.0
  0
SPLINE
  5
981
330
1E
100
AcDbEntity
  8
0
  6
HIDDEN
100
AcDbSpline
210
0.0
220
0.0
230
1.0
 70
    24
 71
     1
 72
     4
 73
     2
 74
     0
 42
0.0000000001
 43
0.0000000001
 40
0.0
 40
0.0
 40
1.0
 40
1.0
 10
2.854235289361252
 20
19.79574750489418
 30
0.0
 10
2.854235289361252
 20
20.17074748661238
 30
0.0
  0
LINE
  5
982
330
1E
100
AcDbEntity
  8
0
  6
HIDDEN
100
AcDbLine
 10
2.574235283945208
 20
19.79574750489418
 30
0.0
 11
2.769735292179097
 21
19.79574750489418
 31
0.0
  0
SPLINE
  5
983
330
1E
100
AcDbEntity
  8
0
  6
HIDDEN
100
AcDbSpline
210
0.0
220
0.0
230
1.0
 70
    24
 71
     1
 72
     4
 73
     2
 74
     0
 42
0.0000000001
 43
0.0000000001
 40
0.0
 40
0.0
 40
1.0
 40
1.0
 10
2.677735288304326
 20
19.71774747929046
 30
0.0
 10
2.677735288304326
 20
19.79574750489418
 30
0.0
  0
LINE
  5
984
330
1E
100
AcDbEntity
  8
0
  6
HIDDEN
100
AcDbLine
 10
2.769735292179097
 20
19.79574750489418
 30
0.0
 11
2.769735292179097
 21
19.71774747929045
 31
0.0
  0
SPLINE
  5
985
330
1E
100
AcDbEntity
  8
0
  6
HIDDEN
100
AcDbSpline
210
0.0
220
0.0
230
1.0
 70
    24
 71
     1
 72
     4
 73
     2
 74
     0
 42
0.0000000001
 43
0.0000000001
 40
0.0
 40
0.0
 40
1.0
 40
1.0
 10
2.724735252023402
 20
19.71774747929046
 30
0.0
 10
2.724735252023402
 20
19.79574750489418
 30
0.0
  0
LINE
  5
986
330
1E
100
AcDbEntity
  8
0
  6
Continuous
100
AcDbLine
 10
2.323235343517939
 20
20.32634748619123
 30
0.0
 11
2.323235343517939
 21
20.58914747613666
 31
0.0
  0
LINE
  5
987
330
1E
100
AcDbEntity
  8
0
  6
Continuous
100
AcDbLine
 10
2.323235343517939
 20
20.68274748486137
 30
0.0
 11
2.323235343517939
 21
20.6047474959239
 31
0.0
  0
LINE
  5
988
330
1E
100
AcDbEntity
  8
0
  6
Continuous
100
AcDbLine
 10
2.323235343517939
 20
20.58914747613666
 30
0.0
 11
2.323235343517939
 21
20.6047474959239
 31
0.0
  0
LINE
  5
989
330
1E
100
AcDbEntity
  8
0
  6
HIDDEN
100
AcDbLine
 10
3.330735264792874
 20
19.71774747929045
 30
0.0
 11
3.205735348802571
 21
19.71774747929045
 31
0.0
  0
LINE
  5
98A
330
1E
100
AcDbEntity
  8
0
  6
HIDDEN
100
AcDbLine
 10
3.205735348802571
 20
19.79574750489418
 30
0.0
 11
3.330735264792874
 21
19.79574750489418
 31
0.0
  0
LINE
  5
98B
330
1E
100
AcDbEntity
  8
0
  6
HIDDEN
100
AcDbLine
 10
3.205735348802571
 20
19.71774747929045
 30
0.0
 11
3.205735348802571
 21
19.79574750489418
 31
0.0
  0
LINE
  5
98C
330
1E
100
AcDbEntity
  8
0
  6
HIDDEN
100
AcDbLine
 10
3.330735264792874
 20
19.79574750489418
 30
0.0
 11
3.330735264792874
 21
19.71774747929045
 31
0.0
  0
SPLINE
  5
98D
330
1E
100
AcDbEntity
  8
0
  6
HIDDEN
100
AcDbSpline
210
0.0
220
0.0
230
1.0
 70
    24
 71
     1
 72
     4
 73
     2
 74
     0
 42
0.0000000001
 43
0.0000000001
 40
0.0
 40
0.0
 40
1.0
 40
1.0
 10
3.384735254313721
 20
19.79574750489418
 30
0.0
 10
3.384735254313721
 20
19.71774747929045
 30
0.0
  0
SPLINE
  5
98E
330
1E
100
AcDbEntity
  8
0
  6
HIDDEN
100
AcDbSpline
210
0.0
220
0.0
230
1.0
 70
    24
 71
     1
 72
     4
 73
     2
 74
     0
 42
0.0000000001
 43
0.0000000001
 40
0.0
 40
0.0
 40
1.0
 40
1.0
 10
3.728735307062425
 20
19.71774747929045
 30
0.0
 10
3.728735307062425
 20
19.79574750489418
 30
0.0
  0
SPLINE
  5
98F
330
1E
100
AcDbEntity
  8
0
  6
HIDDEN
100
AcDbSpline
210
0.0
220
0.0
230
1.0
 70
    24
 71
     1
 72
     4
 73
     2
 74
     0
 42
0.0000000001
 43
0.0000000001
 40
0.0
 40
0.0
 40
1.0
 40
1.0
 10
4.415735304113168
 20
19.79574750489418
 30
0.0
 10
4.415735304113168
 20
19.71774747929045
 30
0.0
  0
SPLINE
  5
990
330
1E
100
AcDbEntity
  8
0
  6
HIDDEN
100
AcDbSpline
210
0.0
220
0.0
230
1.0
 70
    24
 71
     1
 72
     4
 73
     2
 74
     0
 42
0.0000000001
 43
0.0000000001
 40
0.0
 40
0.0
 40
1.0
 40
1.0
 10
4.665735319424991
 20
19.71774747929045
 30
0.0
 10
4.665735319424991
 20
19.79574750489418
 30
0.0
  0
SPLINE
  5
991
330
1E
100
AcDbEntity
  8
0
  6
HIDDEN
100
AcDbSpline
210
0.0
220
0.0
230
1.0
 70
    24
 71
     1
 72
     4
 73
     2
 74
     0
 42
0.0000000001
 43
0.0000000001
 40
0.0
 40
0.0
 40
1.0
 40
1.0
 10
5.400735315308985
 20
19.79574750489418
 30
0.0
 10
5.400735315308985
 20
19.71774747929045
 30
0.0
  0
SPLINE
  5
992
330
1E
100
AcDbEntity
  8
0
  6
HIDDEN
100
AcDbSpline
210
0.0
220
0.0
230
1.0
 70
    24
 71
     1
 72
     4
 73
     2
 74
     0
 42
0.0000000001
 43
0.0000000001
 40
0.0
 40
0.0
 40
1.0
 40
1.0
 10
5.650735330620808
 20
19.71774747929045
 30
0.0
 10
5.650735330620808
 20
19.79574750489418
 30
0.0
  0
SPLINE
  5
993
330
1E
100
AcDbEntity
  8
0
  6
HIDDEN
100
AcDbSpline
210
0.0
220
0.0
230
1.0
 70
    24
 71
     1
 72
     4
 73
     2
 74
     0
 42
0.0000000001
 43
0.0000000001
 40
0.0
 40
0.0
 40
1.0
 40
1.0
 10
6.337735327671552
 20
19.79574750489418
 30
0.0
 10
6.337735327671552
 20
19.71774747929045
 30
0.0
  0
LINE
  5
994
330
1E
100
AcDbEntity
  8
0
  6
HIDDEN
100
AcDbLine
 10
6.7357353699411
 20
19.71774747929045
 30
0.0
 11
6.7357353699411
 21
19.79574750489418
 31
0.0
  0
SPLINE
  5
995
330
1E
100
AcDbEntity
  8
0
  6
HIDDEN
100
AcDbSpline
210
0.0
220
0.0
230
1.0
 70
    24
 71
     1
 72
     4
 73
     2
 74
     0
 42
0.0000000001
 43
0.0000000001
 40
0.0
 40
0.0
 40
1.0
 40
1.0
 10
6.681735380420256
 20
19.71774747929045
 30
0.0
 10
6.681735380420256
 20
19.79574750489418
 30
0.0
  0
LINE
  5
996
330
1E
100
AcDbEntity
  8
0
  6
Continuous
100
AcDbLine
 10
9.093235322567139
 20
-0.228979302090913
 30
0.0
 11
9.093235322567139
 21
9.707021116384378
 31
0.0
  0
LINE
  5
997
330
1E
100
AcDbEntity
  8
0
  6
Continuous
100
AcDbLine
 10
19.12894387037987
 20
1.465996104075223
 30
0.0
 11
19.12894387037987
 21
8.012045710218242
 31
0.0
  0
LINE
  5
998
330
1E
100
AcDbEntity
  8
0
  6
Continuous
100
AcDbLine
 10
19.20694389598359
 20
1.465996104075223
 30
0.0
 11
19.20694389598359
 21
8.012045710218242
 31
0.0
  0
LINE
  5
999
330
1E
100
AcDbEntity
  8
0
  6
Continuous
100
AcDbLine
 10
13.80094396322279
 20
9.707021116384378
 30
0.0
 11
13.80094396322279
 21
-0.228979302090913
 31
0.0
  0
LINE
  5
99A
330
1E
100
AcDbEntity
  8
0
  6
Continuous
100
AcDbLine
 10
13.73894398611848
 20
9.707021116384378
 30
0.0
 11
13.73894398611848
 21
-0.228979302090913
 31
0.0
  0
LINE
  5
99B
330
1E
100
AcDbEntity
  8
0
  6
Continuous
100
AcDbLine
 10
19.5819438777018
 20
-0.1289790173027363
 30
0.0
 11
19.58194388228508
 21
9.607020831596202
 31
0.0
  0
LINE
  5
99C
330
1E
100
AcDbEntity
  8
0
  6
Continuous
100
AcDbLine
 10
19.64394387772251
 20
-0.1289790173027363
 30
0.0
 11
19.64394388113007
 21
9.607020831596202
 31
0.0
  0
LINE
  5
99D
330
1E
100
AcDbEntity
  8
0
  6
Continuous
100
AcDbLine
 10
14.05094379520341
 20
1.24302105323537
 30
0.0
 11
14.05094379520341
 21
8.235020761058095
 31
0.0
  0
HATCH
  5
99E
330
1E
100
AcDbEntity
  8
0
  6
Continuous
100
AcDbHatch
 10
0.0
 20
0.0
 30
0.0
210
0.0
220
0.0
230
1.0
  2
ANSI31
 70
     0
 71
     0
 91
        1
 92
        0
 93
       12
 72
     1
 10
14.42894387772251
 20
9.722020907146728
 11
14.42894387772251
 21
9.784020907146732
 72
     1
 10
14.42894387772251
 20
9.784020907146732
 11
13.81594387772251
 21
9.784020907146732
 72
     2
 10
13.81594387772251
 20
9.707020907146734
 40
0.0769999999999997
 50
90.0
 51
179.999999999996
 73
     1
 72
     1
 10
13.73894387772251
 20
9.707020907146738
 11
13.7389438777225
 21
-0.228979092853244
 72
     2
 10
13.8159438777225
 20
-0.2289790928532476
 40
0.0769999999999997
 50
179.9999999999992
 51
270.0000000000008
 73
     1
 72
     1
 10
13.8159438777225
 20
-0.3059790928532458
 11
14.4289438777225
 21
-0.3059790928532564
 72
     1
 10
14.4289438777225
 20
-0.30597909285326
 11
14.4289438777225
 21
-0.2439790928532552
 72
     1
 10
14.4289438777225
 20
-0.2439790928532552
 11
13.81594387772251
 21
-0.2439790928532481
 72
     2
 10
13.8159438777225
 20
-0.2289790928532476
 40
0.0149999999999997
 50
89.99999999998644
 51
180.0000000000133
 73
     0
 72
     1
 10
13.8009438777225
 20
-0.228979092853244
 11
13.80094387772251
 21
9.707020907146734
 72
     2
 10
13.81594387772251
 20
9.707020907146734
 40
0.0149999999999997
 50
180.0000000000143
 51
269.9999999999804
 73
     0
 72
     1
 10
13.81594387772251
 20
9.722020907146735
 11
14.42894387772251
 21
9.722020907146728
 97
        0
 75
     0
 76
     1
 52
0.0
 41
1.0
 77
     0
 78
     1
 53
45.0
 43
0.0
 44
0.0
 45
-0.0883883476483184
 46
0.0883883476483185
 79
     0
 98
        1
 10
0.0
 20
0.0
  0
HATCH
  5
99F
330
1E
100
AcDbEntity
  8
0
  6
Continuous
100
AcDbHatch
 10
0.0
 20
0.0
 30
0.0
210
0.0
220
0.0
230
1.0
  2
ANSI31
 70
     0
 71
     0
 91
        1
 92
        0
 93
       20
 72
     1
 10
13.82394387772251
 20
-0.1289790928532675
 11
13.82394387772252
 21
0.1190209071467336
 72
     1
 10
13.82394387772252
 20
0.1190209071467336
 11
13.7619438777225
 21
0.1190209071467336
 72
     1
 10
13.7619438777225
 20
0.1190209071467336
 11
13.7619438777225
 21
-0.1289790928532675
 72
     2
 10
13.8389438777225
 20
-0.1289790928532675
 40
0.0770000040634601
 50
180.0
 51
269.9999999999968
 73
     1
 72
     1
 10
13.8389438777225
 20
-0.2059790928532692
 11
19.56694387772251
 21
-0.2059790962608332
 72
     2
 10
19.56694387772251
 20
-0.1289790928532675
 40
0.0770000034075662
 50
270.0000000000008
 51
360.0000000000008
 73
     1
 72
     1
 10
19.64394387772251
 20
-0.1289790928532675
 11
19.64394388113007
 21
9.607020907146733
 72
     2
 10
19.56694387772251
 20
9.607020907146733
 40
0.0770000034075662
 50
0.0
 51
89.99999999980966
 73
     1
 72
     1
 10
19.56694387772276
 20
9.684020907146475
 11
13.83894387772279
 21
9.684020911209955
 72
     2
 10
13.83894387772279
 20
9.607020907146498
 40
0.0770000040634601
 50
90.0
 51
180.0000000000021
 73
     1
 72
     1
 10
13.76194387772265
 20
9.607020907146495
 11
13.76194387772279
 21
9.359020907146515
 72
     1
 10
13.76194387772279
 20
9.359020907146515
 11
13.82394387772252
 21
9.359020907146515
 72
     1
 10
13.82394387772252
 20
9.359020907146515
 11
13.82394387772264
 21
9.607020907146491
 72
     2
 10
13.83894387772279
 20
9.607020907146498
 40
0.0150000040634601
 50
179.9999999999932
 51
270.0000000000008
 73
     0
 72
     1
 10
13.83894387772279
 20
9.622020907146495
 11
19.56694388113008
 21
9.622020907146477
 72
     2
 10
19.56694387772251
 20
9.607020907146733
 40
0.0150000034075662
 50
270.0000130159365
 51
360.0000000000008
 73
     0
 72
     1
 10
19.58194388113007
 20
9.607020907146733
 11
19.5819438777225
 21
-0.1289790928532639
 72
     2
 10
19.56694387772251
 20
-0.1289790928532675
 40
0.0150000034075662
 50
0.0000000000021204
 51
89.99999349203362
 73
     0
 72
     1
 10
19.56694387942629
 20
-0.143979096260832
 11
13.8389438777225
 21
-0.143979092853268
 72
     2
 10
13.8389438777225
 20
-0.1289790928532675
 40
0.0150000040634601
 50
90.0000000000068
 51
180.0000000000091
 73
     0
 97
        0
 75
     0
 76
     1
 52
0.0
 41
1.0
 77
     0
 78
     1
 53
45.0
 43
0.0
 44
0.0
 45
-0.0883883476483184
 46
0.0883883476483185
 79
     0
 98
        1
 10
0.0
 20
0.0
  0
HATCH
  5
9A0
330
1E
100
AcDbEntity
  8
0
  6
Continuous
100
AcDbHatch
 10
0.0
 20
0.0
 30
0.0
210
0.0
220
0.0
230
1.0
  2
ANSI31
 70
     0
 71
     0
 91
        1
 92
        0
 93
        4
 72
     1
 10
19.20694387772251
 20
1.465996174540634
 11
19.20694387772251
 21
8.012045639752582
 72
     1
 10
19.20694387772251
 20
8.012045639752578
 11
19.12894387772251
 21
8.012045639752578
 72
     1
 10
19.12894387772251
 20
8.012045639752578
 11
19.12894387772251
 21
1.465996174540631
 72
     1
 10
19.12894387772251
 20
1.465996174540634
 11
19.20694387772251
 21
1.465996174540634
 97
        0
 75
     0
 76
     1
 52
0.0
 41
1.0
 77
     0
 78
     1
 53
45.0
 43
0.0
 44
0.0
 45
-0.0883883476483184
 46
0.0883883476483185
 79
     0
 98
        1
 10
0.0
 20
0.0
  0
INSERT
  5
9A1
330
1E
100
AcDbEntity
  8
0
  6
Continuous
100
AcDbBlockReference
  2
SW_NOTE_0
 10
13.9932935460326
 20
-4.978356302083602
 30
0.0
  0
LINE
  5
9A2
330
1E
100
AcDbEntity
  8
0
  6
Continuous
100
AcDbLine
 10
13.83894368424677
 20
-0.2059793011222233
 30
0.0
 11
19.56694387806641
 21
-0.2059793011222233
 31
0.0
  0
LINE
  5
9A3
330
1E
100
AcDbEntity
  8
0
  6
Continuous
100
AcDbLine
 10
13.83894368424677
 20
-0.1439790306879694
 30
0.0
 11
19.56694387806641
 21
-0.1439790306879694
 31
0.0
  0
MTEXT
  5
9A4
330
1E
100
AcDbEntity
  8
0
  6
Continuous
100
AcDbMText
 10
14.66612409592632
 20
-1.814254364179779
 30
0.0
 40
0.5
 41
0.0
 71
     1
 72
     1
  1
SECTION A-A
  7
SLDTEXTSTYLE0
 73
     1
 44
1.0
  0
LINE
  5
9A5
330
1E
100
AcDbEntity
  8
0
  6
Continuous
100
AcDbLine
 10
8.638235405431679
 20
-15.17285488518177
 30
0.0
 11
8.638235405431679
 21
-5.932854853117294
 31
0.0
  0
LINE
  5
9A6
330
1E
100
AcDbEntity
  8
0
  6
Continuous
100
AcDbLine
 10
8.968235406576837
 20
-5.723240981261294
 30
0.0
 11
8.968235406576837
 21
-15.38246875703777
 31
0.0
  0
LINE
  5
9A7
330
1E
100
AcDbEntity
  8
0
  6
HIDDEN
100
AcDbLine
 10
8.90623542947253
 20
-5.71489633099274
 30
0.0
 11
8.90623542947253
 21
-15.39081340730633
 31
0.0
  0
LINE
  5
9A8
330
1E
100
AcDbEntity
  8
0
  6
Continuous
100
AcDbLine
 10
7.985735263169001
 20
-14.01585481094536
 30
0.0
 11
7.985735263169001
 21
-7.089854927353705
 31
0.0
  0
LINE
  5
9A9
330
1E
100
AcDbEntity
  8
0
  6
Continuous
100
AcDbLine
 10
7.743235291216038
 20
-15.57585502968971
 30
0.0
 11
7.743235291216038
 21
-15.59145490281198
 31
0.0
  0
LINE
  5
9AA
330
1E
100
AcDbEntity
  8
0
  6
Continuous
100
AcDbLine
 10
8.743235205798356
 20
-15.57585502968971
 30
0.0
 11
8.743235205798356
 21
-15.59145490281198
 31
0.0
  0
LINE
  5
9AB
330
1E
100
AcDbEntity
  8
0
  6
Continuous
100
AcDbLine
 10
7.868235207206339
 20
-16.73285510392613
 30
0.0
 11
8.618235289808055
 21
-16.73285510392613
 31
0.0
  0
ARC
  5
9AC
330
1E
100
AcDbEntity
  8
0
  6
Continuous
100
AcDbCircle
 10
8.243235317366988
 20
-15.96285486914972
 30
0.0
 40
0.2185000000000006
100
AcDbArc
 50
0.0
 51
180.0
  0
ARC
  5
9AD
330
1E
100
AcDbEntity
  8
0
  6
Continuous
100
AcDbCircle
 10
8.243235317366988
 20
-16.21285486914971
 30
0.0
 40
0.2185000000000006
100
AcDbArc
 50
180.0
 51
0.0
  0
LINE
  5
9AE
330
1E
100
AcDbEntity
  8
0
  6
Continuous
100
AcDbLine
 10
7.743235291216038
 20
-15.59145490281198
 30
0.0
 11
7.743235291216038
 21
-16.60785489460588
 31
0.0
  0
ARC
  5
9AF
330
1E
100
AcDbEntity
  8
0
  6
Continuous
100
AcDbCircle
 10
7.868235317366988
 20
-16.60785486914972
 30
0.0
 40
0.1250000000000009
100
AcDbArc
 50
180.0000000000024
 51
270.0000000000008
  0
LINE
  5
9B0
330
1E
100
AcDbEntity
  8
0
  6
Continuous
100
AcDbLine
 10
8.024735239304614
 20
-15.96285461237084
 30
0.0
 11
8.024735239304614
 21
-16.21285503101134
 31
0.0
  0
ARC
  5
9B1
330
1E
100
AcDbEntity
  8
0
  6
Continuous
100
AcDbCircle
 10
8.618235317366988
 20
-16.60785486914972
 30
0.0
 40
0.125
100
AcDbArc
 50
270.0000000000008
 51
0.0
  0
LINE
  5
9B2
330
1E
100
AcDbEntity
  8
0
  6
Continuous
100
AcDbLine
 10
8.743235205798356
 20
-15.59145490281198
 30
0.0
 11
8.743235205798356
 21
-16.60785489460588
 31
0.0
  0
LINE
  5
9B3
330
1E
100
AcDbEntity
  8
0
  6
Continuous
100
AcDbLine
 10
8.461735257709779
 20
-16.21285503101134
 30
0.0
 11
8.461735257709779
 21
-15.96285461237084
 31
0.0
  0
LINE
  5
9B4
330
1E
100
AcDbEntity
  8
0
  6
Continuous
100
AcDbLine
 10
8.638235405431679
 20
-13.94185499913084
 30
0.0
 11
7.407235372715767
 21
-15.17285488518177
 31
0.0
  0
LINE
  5
9B5
330
1E
100
AcDbEntity
  8
0
  6
Continuous
100
AcDbLine
 10
8.118235332516892
 20
-15.57585502968971
 30
0.0
 11
7.993235416526587
 21
-15.57585502968971
 31
0.0
  0
CIRCLE
  5
9B6
330
1E
100
AcDbEntity
  8
0
  6
HIDDEN
100
AcDbCircle
 10
8.243235317366988
 20
-14.72285486914971
 30
0.0
 40
0.2185000000000006
  0
ARC
  5
9B7
330
1E
100
AcDbEntity
  8
0
  6
HIDDEN
100
AcDbCircle
 10
8.118235317366988
 20
-15.20085486914972
 30
0.0
 40
0.125
100
AcDbArc
 50
90.0
 51
180.0
  0
LWPOLYLINE
  5
9B8
330
1E
100
AcDbEntity
  8
0
  6
HIDDEN
100
AcDbPolyline
 90
        9
 70
   128
 43
0.0
 10
8.044235227372425
 20
-15.43585480698423
 10
8.047117487409643
 20
-15.43297254694701
 10
8.055653388802181
 20
-15.42443693888442
 10
8.069514988671798
 20
-15.4105753390148
 10
8.088169306508859
 20
-15.39192102117774
 10
8.110899737258314
 20
-15.36919029709834
 10
8.136832744344673
 20
-15.34325729001198
 10
8.164971885945575
 20
-15.31511844174103
 10
8.194235361224741
 20
-15.28585496646186
  0
CIRCLE
  5
9B9
330
1E
100
AcDbEntity
  8
0
  6
HIDDEN
100
AcDbCircle
 10
8.250235317366986
 20
-14.77985486914953
 30
0.0
 40
0.1875
  0
LWPOLYLINE
  5
9BA
330
1E
100
AcDbEntity
  8
0
  6
HIDDEN
100
AcDbPolyline
 90
        9
 70
   128
 43
0.0
 10
8.044235227372425
 20
-15.37385482987993
 10
8.047117487409643
 20
-15.37216407607832
 10
8.055653388802181
 20
-15.36715634726137
 10
8.069514988671798
 20
-15.35902406787282
 10
8.088169306508859
 20
-15.34808022096374
 10
8.110899737258314
 20
-15.33474514834497
 10
8.136832744344673
 20
-15.31953100410007
 10
8.164971885945575
 20
-15.30302268813887
 10
8.194235361224741
 20
-15.28585496646186
  0
CIRCLE
  5
9BB
330
1E
100
AcDbEntity
  8
0
  6
HIDDEN
100
AcDbCircle
 10
8.243235317366988
 20
-14.72285486914972
 30
0.0
 40
0.1970000000000009
  0
LINE
  5
9BC
330
1E
100
AcDbEntity
  8
0
  6
HIDDEN
100
AcDbLine
 10
7.868235207206339
 20
-14.24785474419567
 30
0.0
 11
8.618235289808055
 21
-14.24785474419567
 31
0.0
  0
LINE
  5
9BD
330
1E
100
AcDbEntity
  8
0
  6
Continuous
100
AcDbLine
 10
7.296735342554878
 20
-14.3748548770793
 30
0.0
 11
7.296735342554878
 21
-13.99785491221506
 31
0.0
  0
ARC
  5
9BE
330
1E
100
AcDbEntity
  8
0
  6
HIDDEN
100
AcDbCircle
 10
7.492235317367008
 20
-13.99785486914937
 30
0.0
 40
0.2800000000000009
100
AcDbArc
 50
329.288580325597
 51
225.7160891082929
  0
CIRCLE
  5
9BF
330
1E
100
AcDbEntity
  8
0
  6
Continuous
100
AcDbCircle
 10
7.492235317367008
 20
-13.99785486914937
 30
0.0
 40
0.1574999999999989
  0
LINE
  5
9C0
330
1E
100
AcDbEntity
  8
0
  6
Continuous
100
AcDbLine
 10
7.690735391032696
 20
-13.99785491221506
 30
0.0
 11
7.690735391032696
 21
-14.14085472693566
 31
0.0
  0
LINE
  5
9C1
330
1E
100
AcDbEntity
  8
0
  6
Continuous
100
AcDbLine
 10
7.860735347178696
 20
-14.14085472693566
 30
0.0
 11
7.985735263169001
 21
-14.01585481094536
 31
0.0
  0
LINE
  5
9C2
330
1E
100
AcDbEntity
  8
0
  6
HIDDEN
100
AcDbLine
 10
8.044235227372425
 20
-15.37385482987993
 30
0.0
 11
7.144235304248333
 21
-15.37385482987993
 31
0.0
  0
ARC
  5
9C3
330
1E
100
AcDbEntity
  8
0
  6
Continuous
100
AcDbCircle
 10
7.492235317367008
 20
-13.99785486914937
 30
0.0
 40
0.2800000000000011
100
AcDbArc
 50
225.7160891082929
 51
270.0000000000008
  0
LWPOLYLINE
  5
9C4
330
1E
100
AcDbEntity
  8
0
  6
HIDDEN
100
AcDbPolyline
 90
        9
 70
   128
 43
0.0
 10
7.294235291435683
 20
-15.28585496646186
 10
7.264971816156513
 20
-15.31511844174103
 10
7.236832821220584
 20
-15.34325729001198
 10
7.210899814134229
 20
-15.36919029709834
 10
7.188169236719797
 20
-15.39192102117774
 10
7.169514918882736
 20
-15.4105753390148
 10
7.155653319013119
 20
-15.42443693888442
 10
7.147117564285554
 20
-15.43297254694701
 10
7.144235304248333
 20
-15.43585480698423
  0
LWPOLYLINE
  5
9C5
330
1E
100
AcDbEntity
  8
0
  6
HIDDEN
100
AcDbPolyline
 90
        9
 70
   128
 43
0.0
 10
7.294235291435683
 20
-15.28585496646186
 10
7.264971816156513
 20
-15.30302268813887
 10
7.236832821220584
 20
-15.31953100410007
 10
7.210899814134229
 20
-15.33474514834497
 10
7.188169236719797
 20
-15.34808022096374
 10
7.169514918882736
 20
-15.35902406787282
 10
7.155653319013119
 20
-15.36715634726137
 10
7.147117564285554
 20
-15.37216407607832
 10
7.144235304248333
 20
-15.37385482987993
  0
LINE
  5
9C6
330
1E
100
AcDbEntity
  8
0
  6
HIDDEN
100
AcDbLine
 10
7.144235304248333
 20
-15.37385482987993
 30
0.0
 11
7.144235304248333
 21
-15.43585480698423
 31
0.0
  0
LINE
  5
9C7
330
1E
100
AcDbEntity
  8
0
  6
HIDDEN
100
AcDbLine
 10
7.407235372715767
 20
-15.17285488518177
 30
0.0
 11
7.294235291435683
 21
-15.28585496646186
 31
0.0
  0
LINE
  5
9C8
330
1E
100
AcDbEntity
  8
0
  6
Continuous
100
AcDbLine
 10
6.860735285931404
 20
-14.3748548770793
 30
0.0
 11
7.296735342554878
 21
-14.3748548770793
 31
0.0
  0
LINE
  5
9C9
330
1E
100
AcDbEntity
  8
0
  6
Continuous
100
AcDbLine
 10
6.860735285931404
 20
-14.65985483806876
 30
0.0
 11
6.860735285931404
 21
-14.3748548770793
 31
0.0
  0
LINE
  5
9CA
330
1E
100
AcDbEntity
  8
0
  6
HIDDEN
100
AcDbLine
 10
7.743235291216038
 20
-14.37285495351592
 30
0.0
 11
7.743235291216038
 21
-15.48225461763633
 31
0.0
  0
LINE
  5
9CB
330
1E
100
AcDbEntity
  8
0
  6
Continuous
100
AcDbLine
 10
7.743235291216038
 20
-15.57585502968971
 30
0.0
 11
7.993235416526587
 21
-15.57585502968971
 31
0.0
  0
LINE
  5
9CC
330
1E
100
AcDbEntity
  8
0
  6
Continuous
100
AcDbLine
 10
7.743235291216038
 20
-15.49785507741849
 30
0.0
 11
7.743235291216038
 21
-15.57585502968971
 31
0.0
  0
LINE
  5
9CD
330
1E
100
AcDbEntity
  8
0
  6
HIDDEN
100
AcDbLine
 10
7.743235291216038
 20
-15.48225461763633
 30
0.0
 11
7.743235291216038
 21
-15.49785507741849
 31
0.0
  0
LINE
  5
9CE
330
1E
100
AcDbEntity
  8
0
  6
HIDDEN
100
AcDbLine
 10
7.993235416526587
 20
-15.20085498838886
 30
0.0
 11
7.993235416526587
 21
-15.48225461763633
 31
0.0
  0
LINE
  5
9CF
330
1E
100
AcDbEntity
  8
0
  6
Continuous
100
AcDbLine
 10
7.993235416526587
 20
-15.49785507741849
 30
0.0
 11
7.993235416526587
 21
-15.57585502968971
 31
0.0
  0
LINE
  5
9D0
330
1E
100
AcDbEntity
  8
0
  6
HIDDEN
100
AcDbLine
 10
7.993235416526587
 20
-15.48225461763633
 30
0.0
 11
7.993235416526587
 21
-15.49785507741849
 31
0.0
  0
LINE
  5
9D1
330
1E
100
AcDbEntity
  8
0
  6
HIDDEN
100
AcDbLine
 10
8.044235227372425
 20
-15.37385482987993
 30
0.0
 11
8.044235227372425
 21
-15.43585480698423
 31
0.0
  0
ARC
  5
9D2
330
1E
100
AcDbEntity
  8
0
  6
HIDDEN
100
AcDbCircle
 10
7.868235317366984
 20
-14.37285486914972
 30
0.0
 40
0.125
100
AcDbArc
 50
90.0
 51
180.0
  0
LINE
  5
9D3
330
1E
100
AcDbEntity
  8
0
  6
Continuous
100
AcDbLine
 10
7.690735391032696
 20
-14.14085472693566
 30
0.0
 11
7.860735347178696
 21
-14.14085472693566
 31
0.0
  0
ARC
  5
9D4
330
1E
100
AcDbEntity
  8
0
  6
Continuous
100
AcDbCircle
 10
7.492235317367008
 20
-13.99785486914937
 30
0.0
 40
0.2800000000000011
100
AcDbArc
 50
270.0000000000008
 51
329.288580325597
  0
CIRCLE
  5
9D5
330
1E
100
AcDbEntity
  8
0
  6
Continuous
100
AcDbCircle
 10
7.51373531736699
 20
-13.02485486914966
 30
0.0
 40
0.1719999999999979
  0
ARC
  5
9D6
330
1E
100
AcDbEntity
  8
0
  6
Continuous
100
AcDbCircle
 10
7.49373531736699
 20
-13.99785486914966
 30
0.0
 40
0.197
100
AcDbArc
 50
0.0
 51
180.0
  0
LINE
  5
9D7
330
1E
100
AcDbEntity
  8
0
  6
HIDDEN
100
AcDbLine
 10
8.844235452368224
 20
-13.67385497508998
 30
0.0
 11
8.844235452368224
 21
-14.57385489821407
 31
0.0
  0
ARC
  5
9D8
330
1E
100
AcDbEntity
  8
0
  6
HIDDEN
100
AcDbCircle
 10
8.618235317366988
 20
-14.37285486914972
 30
0.0
 40
0.125
100
AcDbArc
 50
0.0
 51
90.0
  0
LWPOLYLINE
  5
9D9
330
1E
100
AcDbEntity
  8
0
  6
HIDDEN
100
AcDbPolyline
 90
       10
 70
   128
 43
0.0
 10
8.756235295620211
 20
-14.72385473873645
 10
8.782282408055078
 20
-14.69780762630158
 10
8.807538409628925
 20
-14.67255191805768
 10
8.831235362546372
 20
-14.64885496514023
 10
8.852653435122967
 20
-14.62743659923369
 10
8.871142021541238
 20
-14.60894830614536
 10
8.886139101627023
 20
-14.59395093272963
 10
8.897189133976105
 20
-14.58290090038055
 10
8.903956549131684
 20
-14.57613377855492
 10
8.90623542947253
 20
-14.57385489821407
  0
LWPOLYLINE
  5
9DA
330
1E
100
AcDbEntity
  8
0
  6
HIDDEN
100
AcDbPolyline
 90
       10
 70
   128
 43
0.0
 10
8.756235295620211
 20
-14.72385473873645
 10
8.771516319092523
 20
-14.69780762630158
 10
8.786333001262278
 20
-14.67255191805768
 10
8.800235373994219
 20
-14.64885496514023
 10
8.812800748837936
 20
-14.62743659923369
 10
8.823647210205354
 20
-14.60894830614536
 10
8.832445641898452
 20
-14.59395093272963
 10
8.838928233677666
 20
-14.58290090038055
 10
8.842898454480003
 20
-14.57613377855492
 10
8.844235452368224
 20
-14.57385489821407
  0
LINE
  5
9DB
330
1E
100
AcDbEntity
  8
0
  6
Continuous
100
AcDbLine
 10
8.307235442504826
 20
-15.17285488518177
 30
0.0
 11
8.638235405431679
 21
-14.84185492225492
 31
0.0
  0
LINE
  5
9DC
330
1E
100
AcDbEntity
  8
0
  6
HIDDEN
100
AcDbLine
 10
8.743235205798356
 20
-14.37285495351592
 30
0.0
 11
8.743235205798356
 21
-15.48225461763633
 31
0.0
  0
CIRCLE
  5
9DD
330
1E
100
AcDbEntity
  8
0
  6
HIDDEN
100
AcDbCircle
 10
8.250235317366986
 20
-14.77985486914953
 30
0.0
 40
0.120000000000001
  0
CIRCLE
  5
9DE
330
1E
100
AcDbEntity
  8
0
  6
Continuous
100
AcDbCircle
 10
8.250235317366986
 20
-14.77985486914953
 30
0.0
 40
0.0780000000000012
  0
ARC
  5
9DF
330
1E
100
AcDbEntity
  8
0
  6
HIDDEN
100
AcDbCircle
 10
8.368235317366984
 20
-15.20085486914972
 30
0.0
 40
0.1250000000000018
100
AcDbArc
 50
0.0
 51
90.0
  0
LINE
  5
9E0
330
1E
100
AcDbEntity
  8
0
  6
Continuous
100
AcDbLine
 10
8.368235457827445
 20
-15.57585502968971
 30
0.0
 11
8.49323537381775
 21
-15.57585502968971
 31
0.0
  0
LINE
  5
9E1
330
1E
100
AcDbEntity
  8
0
  6
Continuous
100
AcDbLine
 10
8.368235457827445
 20
-15.57585502968971
 30
0.0
 11
8.243235248507197
 21
-15.57585502968971
 31
0.0
  0
LINE
  5
9E2
330
1E
100
AcDbEntity
  8
0
  6
Continuous
100
AcDbLine
 10
8.118235332516892
 20
-15.57585502968971
 30
0.0
 11
8.118235332516892
 21
-15.49785507741849
 31
0.0
  0
LINE
  5
9E3
330
1E
100
AcDbEntity
  8
0
  6
Continuous
100
AcDbLine
 10
8.243235248507197
 20
-15.57585502968971
 30
0.0
 11
8.118235332516892
 21
-15.57585502968971
 31
0.0
  0
LINE
  5
9E4
330
1E
100
AcDbEntity
  8
0
  6
Continuous
100
AcDbLine
 10
8.368235457827445
 20
-15.49785507741849
 30
0.0
 11
8.368235457827445
 21
-15.57585502968971
 31
0.0
  0
LINE
  5
9E5
330
1E
100
AcDbEntity
  8
0
  6
HIDDEN
100
AcDbLine
 10
8.368235457827445
 20
-15.07585477906861
 30
0.0
 11
8.118235332516892
 21
-15.07585477906861
 31
0.0
  0
LINE
  5
9E6
330
1E
100
AcDbEntity
  8
0
  6
HIDDEN
100
AcDbLine
 10
8.194235361224741
 20
-15.28585496646186
 30
0.0
 11
8.307235442504826
 21
-15.17285488518177
 31
0.0
  0
LINE
  5
9E7
330
1E
100
AcDbEntity
  8
0
  6
Continuous
100
AcDbLine
 10
8.49323537381775
 20
-15.57585502968971
 30
0.0
 11
8.743235205798356
 21
-15.57585502968971
 31
0.0
  0
LINE
  5
9E8
330
1E
100
AcDbEntity
  8
0
  6
HIDDEN
100
AcDbLine
 10
8.49323537381775
 20
-15.48225461763633
 30
0.0
 11
8.49323537381775
 21
-15.20085498838886
 31
0.0
  0
LINE
  5
9E9
330
1E
100
AcDbEntity
  8
0
  6
Continuous
100
AcDbLine
 10
8.49323537381775
 20
-15.57585502968971
 30
0.0
 11
8.49323537381775
 21
-15.49785507741849
 31
0.0
  0
LINE
  5
9EA
330
1E
100
AcDbEntity
  8
0
  6
HIDDEN
100
AcDbLine
 10
8.49323537381775
 20
-15.49785507741849
 30
0.0
 11
8.49323537381775
 21
-15.48225461763633
 31
0.0
  0
LINE
  5
9EB
330
1E
100
AcDbEntity
  8
0
  6
Continuous
100
AcDbLine
 10
8.743235205798356
 20
-15.49785507741849
 30
0.0
 11
8.743235205798356
 21
-15.57585502968971
 31
0.0
  0
LINE
  5
9EC
330
1E
100
AcDbEntity
  8
0
  6
HIDDEN
100
AcDbLine
 10
8.743235205798356
 20
-15.48225461763633
 30
0.0
 11
8.743235205798356
 21
-15.49785507741849
 31
0.0
  0
LINE
  5
9ED
330
1E
100
AcDbEntity
  8
0
  6
HIDDEN
100
AcDbLine
 10
8.638235405431679
 20
-14.84185492225492
 30
0.0
 11
8.756235295620211
 21
-14.72385473873645
 31
0.0
  0
ARC
  5
9EE
330
1E
100
AcDbEntity
  8
0
  6
Continuous
100
AcDbCircle
 10
8.891235317367005
 20
-15.42085486914953
 30
0.0
 40
0.0770000000000017
100
AcDbArc
 50
270.0000000000008
 51
0.0
  0
SPLINE
  5
9EF
330
1E
100
AcDbEntity
  8
0
  6
HIDDEN
100
AcDbSpline
210
0.0
220
0.0
230
1.0
 70
     8
 71
     3
 72
    10
 73
     6
 74
     0
 42
0.0000000001
 43
0.0000000001
 40
0.0
 40
0.0
 40
0.0
 40
0.0
 40
0.5
 40
0.5
 40
1.0
 40
1.0
 40
1.0
 40
1.0
 10
8.831152357867082
 20
-15.42085486914953
 30
0.0
 10
8.841166184450397
 20
-15.42478186103033
 30
0.0
 10
8.851180011033719
 20
-15.42868467115205
 30
0.0
 10
8.871207664200348
 20
-15.43423827632921
 30
0.0
 10
8.881221490783673
 20
-15.43585487321299
 30
0.0
 10
8.891235317366987
 20
-15.43585487321299
 30
0.0
  0
LINE
  5
9F0
330
1E
100
AcDbEntity
  8
0
  6
Continuous
100
AcDbLine
 10
8.891235416087297
 20
-15.49785507741849
 30
0.0
 11
8.853235401733371
 21
-15.49785507741849
 31
0.0
  0
SPLINE
  5
9F1
330
1E
100
AcDbEntity
  8
0
  6
HIDDEN
100
AcDbSpline
210
0.0
220
0.0
230
1.0
 70
     8
 71
     3
 72
    10
 73
     6
 74
     0
 42
0.0000000001
 43
0.0000000001
 40
0.0
 40
0.0
 40
0.0
 40
0.0
 40
0.5
 40
0.5
 40
1.0
 40
1.0
 40
1.0
 40
1.0
 10
8.891235317367005
 20
-15.36077190964963
 30
0.0
 10
8.893289115438424
 20
-15.366009093313
 30
0.0
 10
8.895334096322521
 20
-15.37125009852756
 30
0.0
 10
8.900077712363774
 20
-15.38144880168796
 30
0.0
 10
8.902786200757415
 20
-15.38641576672561
 30
0.0
 10
8.906235320792433
 20
-15.39081339376702
 30
0.0
  0
SPLINE
  5
9F2
330
1E
100
AcDbEntity
  8
0
  6
HIDDEN
100
AcDbSpline
210
0.0
220
0.0
230
1.0
 70
     8
 71
     3
 72
    10
 73
     6
 74
     0
 42
0.0000000001
 43
0.0000000001
 40
0.0
 40
0.0
 40
0.0
 40
0.0
 40
0.5
 40
0.5
 40
1.0
 40
1.0
 40
1.0
 40
1.0
 10
8.906235321430465
 20
-15.42085486914953
 30
0.0
 10
8.906235321430465
 20
-15.41084104256621
 30
0.0
 10
8.904618724546683
 20
-15.4008272159829
 30
0.0
 10
8.899065119369527
 20
-15.38079956281626
 30
0.0
 10
8.895162309247808
 20
-15.37078573623294
 30
0.0
 10
8.891235317367005
 20
-15.36077190964963
 30
0.0
  0
SPLINE
  5
9F3
330
1E
100
AcDbEntity
  8
0
  6
HIDDEN
100
AcDbSpline
210
0.0
220
0.0
230
1.0
 70
     8
 71
     3
 72
    10
 73
     6
 74
     0
 42
0.0000000001
 43
0.0000000001
 40
0.0
 40
0.0
 40
0.0
 40
0.0
 40
0.5
 40
0.5
 40
1.0
 40
1.0
 40
1.0
 40
1.0
 10
8.861193842798527
 20
-15.43585487321343
 30
0.0
 10
8.856773864502706
 20
-15.43238822263139
 30
0.0
 10
8.851811957257275
 20
-15.42968861666763
 30
0.0
 10
8.841625150483167
 20
-15.42495174387628
 30
0.0
 10
8.836384049543518
 20
-15.4229065135
 30
0.0
 10
8.831152357867082
 20
-15.42085486914953
 30
0.0
  0
LINE
  5
9F4
330
1E
100
AcDbEntity
  8
0
  6
HIDDEN
100
AcDbLine
 10
8.90623542947253
 20
-15.39081340730633
 30
0.0
 11
8.90623542947253
 21
-15.43585480698423
 31
0.0
  0
LINE
  5
9F5
330
1E
100
AcDbEntity
  8
0
  6
HIDDEN
100
AcDbLine
 10
8.90623542947253
 20
-15.43585480698423
 30
0.0
 11
8.861193736464677
 21
-15.43585480698423
 31
0.0
  0
LWPOLYLINE
  5
9F6
330
1E
100
AcDbEntity
  8
0
  6
HIDDEN
100
AcDbPolyline
 90
        9
 70
   128
 43
0.0
 10
8.891235416087297
 20
-15.420854793599
 10
8.894161675616231
 20
-15.42378134645788
 10
8.896975589776324
 20
-15.42659526061797
 10
8.899568919817951
 20
-15.42918829732966
 10
8.901841933559904
 20
-15.43146160440155
 10
8.903707218678636
 20
-15.43332688952029
 10
8.905093495997576
 20
-15.43471316683922
 10
8.90594708613683
 20
-15.43556675697848
 10
8.90623542947253
 20
-15.43585480698423
  0
LINE
  5
9F7
330
1E
100
AcDbEntity
  8
0
  6
Continuous
100
AcDbLine
 10
8.968235406576837
 20
-15.38246875703777
 30
0.0
 11
8.968235406576837
 21
-15.420854793599
 31
0.0
  0
LINE
  5
9F8
330
1E
100
AcDbEntity
  8
0
  6
HIDDEN
100
AcDbLine
 10
8.844235452368224
 20
-14.57385489821407
 30
0.0
 11
8.90623542947253
 21
-14.57385489821407
 31
0.0
  0
LWPOLYLINE
  5
9F9
330
1E
100
AcDbEntity
  8
0
  6
HIDDEN
100
AcDbPolyline
 90
       10
 70
   128
 43
0.0
 10
8.90623542947253
 20
-13.67385497508998
 10
8.903956549131684
 20
-13.67613356210088
 10
8.897189133976105
 20
-13.68290097725646
 10
8.886139101627023
 20
-13.69395100960554
 10
8.871142021541238
 20
-13.70894808969133
 10
8.852653435122967
 20
-13.7274366761096
 10
8.831235362546372
 20
-13.7488547486862
 10
8.807538409628925
 20
-13.77255170160364
 10
8.782282408055078
 20
-13.79780770317749
 10
8.756235295620211
 20
-13.82385481561236
  0
LWPOLYLINE
  5
9FA
330
1E
100
AcDbEntity
  8
0
  6
HIDDEN
100
AcDbPolyline
 90
       10
 70
   128
 43
0.0
 10
8.844235452368224
 20
-13.67385497508998
 10
8.842898454480003
 20
-13.67613356210088
 10
8.838928233677666
 20
-13.68290097725646
 10
8.832445641898452
 20
-13.69395100960554
 10
8.823647210205354
 20
-13.70894808969133
 10
8.812800748837936
 20
-13.7274366761096
 10
8.800235373994219
 20
-13.7488547486862
 10
8.786333001262278
 20
-13.77255170160364
 10
8.771516319092523
 20
-13.79780770317749
 10
8.756235295620211
 20
-13.82385481561236
  0
LINE
  5
9FB
330
1E
100
AcDbEntity
  8
0
  6
HIDDEN
100
AcDbLine
 10
8.756235295620211
 20
-13.82385481561236
 30
0.0
 11
8.638235405431679
 21
-13.94185499913084
 31
0.0
  0
LINE
  5
9FC
330
1E
100
AcDbEntity
  8
0
  6
HIDDEN
100
AcDbLine
 10
8.844235452368224
 20
-13.67385497508998
 30
0.0
 11
8.90623542947253
 21
-13.67385497508998
 31
0.0
  0
CIRCLE
  5
9FD
330
1E
100
AcDbEntity
  8
0
  6
Continuous
100
AcDbCircle
 10
7.51373531736699
 20
-12.04085486914966
 30
0.0
 40
0.1249999999999991
  0
LINE
  5
9FE
330
1E
100
AcDbEntity
  8
0
  6
Continuous
100
AcDbLine
 10
7.407235372715767
 20
-5.932854853117294
 30
0.0
 11
8.638235405431679
 21
-7.163854739168233
 31
0.0
  0
LINE
  5
9FF
330
1E
100
AcDbEntity
  8
0
  6
Continuous
100
AcDbLine
 10
7.296735342554878
 20
-6.730854861219771
 30
0.0
 11
7.296735342554878
 21
-7.107854826084006
 31
0.0
  0
ARC
  5
A00
330
1E
100
AcDbEntity
  8
0
  6
Continuous
100
AcDbCircle
 10
7.492235317367008
 20
-7.107854869149699
 30
0.0
 40
0.2800000000000003
100
AcDbArc
 50
30.71141967434474
 51
90.0
  0
ARC
  5
A01
330
1E
100
AcDbEntity
  8
0
  6
Continuous
100
AcDbCircle
 10
7.492235317367008
 20
-7.107854869149699
 30
0.0
 40
0.2800000000000003
100
AcDbArc
 50
90.0
 51
134.2839108917073
  0
ARC
  5
A02
330
1E
100
AcDbEntity
  8
0
  6
HIDDEN
100
AcDbCircle
 10
7.868235317366984
 20
-6.732854869149361
 30
0.0
 40
0.125
100
AcDbArc
 50
180.0
 51
270.0000000000008
  0
LINE
  5
A03
330
1E
100
AcDbEntity
  8
0
  6
HIDDEN
100
AcDbLine
 10
8.844235452368224
 20
-6.531854840084996
 30
0.0
 11
8.844235452368224
 21
-7.431854763209084
 31
0.0
  0
ARC
  5
A04
330
1E
100
AcDbEntity
  8
0
  6
HIDDEN
100
AcDbCircle
 10
8.618235317366988
 20
-6.732854869149361
 30
0.0
 40
0.125
100
AcDbArc
 50
270.0000000000008
 51
0.0
  0
LINE
  5
A05
330
1E
100
AcDbEntity
  8
0
  6
HIDDEN
100
AcDbLine
 10
8.618235289808055
 20
-6.857854994103398
 30
0.0
 11
7.868235207206339
 21
-6.857854994103398
 31
0.0
  0
CIRCLE
  5
A06
330
1E
100
AcDbEntity
  8
0
  6
Continuous
100
AcDbCircle
 10
7.51373531736699
 20
-9.064854869149659
 30
0.0
 40
0.1249999999999991
  0
ARC
  5
A07
330
1E
100
AcDbEntity
  8
0
  6
HIDDEN
100
AcDbCircle
 10
7.492235317367008
 20
-7.107854869149699
 30
0.0
 40
0.2800000000000003
100
AcDbArc
 50
134.2839108917073
 51
30.71141967434474
  0
CIRCLE
  5
A08
330
1E
100
AcDbEntity
  8
0
  6
Continuous
100
AcDbCircle
 10
7.51373531736699
 20
-8.080854869149659
 30
0.0
 40
0.1719999999999979
  0
ARC
  5
A09
330
1E
100
AcDbEntity
  8
0
  6
Continuous
100
AcDbCircle
 10
7.49373531736699
 20
-7.107854869149658
 30
0.0
 40
0.197
100
AcDbArc
 50
180.0
 51
0.0000000000006107
  0
CIRCLE
  5
A0A
330
1E
100
AcDbEntity
  8
0
  6
Continuous
100
AcDbCircle
 10
7.492235317367008
 20
-7.107854869149699
 30
0.0
 40
0.1575000000000006
  0
LINE
  5
A0B
330
1E
100
AcDbEntity
  8
0
  6
Continuous
100
AcDbLine
 10
7.690735391032696
 20
-6.9648550113634
 30
0.0
 11
7.860735347178696
 21
-6.9648550113634
 31
0.0
  0
LINE
  5
A0C
330
1E
100
AcDbEntity
  8
0
  6
Continuous
100
AcDbLine
 10
7.690735391032696
 20
-7.107854826084006
 30
0.0
 11
7.690735391032696
 21
-6.9648550113634
 31
0.0
  0
LINE
  5
A0D
330
1E
100
AcDbEntity
  8
0
  6
Continuous
100
AcDbLine
 10
7.985735263169001
 20
-7.089854927353705
 30
0.0
 11
7.860735347178696
 21
-6.9648550113634
 31
0.0
  0
LWPOLYLINE
  5
A0E
330
1E
100
AcDbEntity
  8
0
  6
HIDDEN
100
AcDbPolyline
 90
        9
 70
   128
 43
0.0
 10
8.756235295620211
 20
-7.281854922686708
 10
8.78549877089938
 20
-7.311118397965877
 10
8.813637912500283
 20
-7.339257246236837
 10
8.839570919586638
 20
-7.365190546653135
 10
8.862301350336096
 20
-7.387920977402593
 10
8.880955668173157
 20
-7.406575295239655
 10
8.894817268042771
 20
-7.420436895109272
 10
8.903353169435312
 20
-7.42897279650181
 10
8.90623542947253
 20
-7.431854763209084
  0
LWPOLYLINE
  5
A0F
330
1E
100
AcDbEntity
  8
0
  6
HIDDEN
100
AcDbPolyline
 90
       10
 70
   128
 43
0.0
 10
8.756235295620211
 20
-7.281854922686708
 10
8.771516319092523
 20
-7.307902035121577
 10
8.786333001262278
 20
-7.333158036695424
 10
8.800235373994219
 20
-7.35685498961287
 10
8.812800748837936
 20
-7.378273062189467
 10
8.823647210205354
 20
-7.396761648607739
 10
8.832445641898452
 20
-7.411758728693524
 10
8.838928233677666
 20
-7.422808761042606
 10
8.842898454480003
 20
-7.429576176198182
 10
8.844235452368224
 20
-7.431854763209084
  0
LINE
  5
A10
330
1E
100
AcDbEntity
  8
0
  6
HIDDEN
100
AcDbLine
 10
8.638235405431679
 20
-7.163854739168233
 30
0.0
 11
8.756235295620211
 21
-7.281854922686708
 31
0.0
  0
LINE
  5
A11
330
1E
100
AcDbEntity
  8
0
  6
HIDDEN
100
AcDbLine
 10
8.844235452368224
 20
-7.431854763209084
 30
0.0
 11
8.90623542947253
 21
-7.431854763209084
 31
0.0
  0
CIRCLE
  5
A12
330
1E
100
AcDbEntity
  8
0
  6
HIDDEN
100
AcDbCircle
 10
8.243235317366988
 20
-6.382854869149362
 30
0.0
 40
0.2184999999999988
  0
CIRCLE
  5
A13
330
1E
100
AcDbEntity
  8
0
  6
HIDDEN
100
AcDbCircle
 10
8.250235317367007
 20
-6.32585486914979
 30
0.0
 40
0.1875
  0
CIRCLE
  5
A14
330
1E
100
AcDbEntity
  8
0
  6
HIDDEN
100
AcDbCircle
 10
8.243235317366988
 20
-6.382854869149362
 30
0.0
 40
0.1970000000000018
  0
LINE
  5
A15
330
1E
100
AcDbEntity
  8
0
  6
Continuous
100
AcDbLine
 10
8.118235332516892
 20
-5.529854708609352
 30
0.0
 11
7.993235416526587
 21
-5.529854708609352
 31
0.0
  0
ARC
  5
A16
330
1E
100
AcDbEntity
  8
0
  6
Continuous
100
AcDbCircle
 10
8.243235317366988
 20
-5.14285486914936
 30
0.0
 40
0.2185000000000006
100
AcDbArc
 50
180.0
 51
0.0
  0
ARC
  5
A17
330
1E
100
AcDbEntity
  8
0
  6
HIDDEN
100
AcDbCircle
 10
8.118235317366988
 20
-5.90485486914936
 30
0.0
 40
0.1250000000000009
100
AcDbArc
 50
180.0
 51
270.0000000000008
  0
LWPOLYLINE
  5
A18
330
1E
100
AcDbEntity
  8
0
  6
HIDDEN
100
AcDbPolyline
 90
        9
 70
   128
 43
0.0
 10
8.194235361224741
 20
-5.819854771837208
 10
8.164971885945575
 20
-5.790591296558039
 10
8.136832744344673
 20
-5.762452448287081
 10
8.110899737258314
 20
-5.736519441200726
 10
8.088169306508859
 20
-5.713788717121325
 10
8.069514988671798
 20
-5.695134399284262
 10
8.055653388802181
 20
-5.681272799414646
 10
8.047117487409643
 20
-5.672737191352052
 10
8.044235227372425
 20
-5.669854931314834
  0
LWPOLYLINE
  5
A19
330
1E
100
AcDbEntity
  8
0
  6
HIDDEN
100
AcDbPolyline
 90
        9
 70
   128
 43
0.0
 10
8.194235361224741
 20
-5.819854771837208
 10
8.164971885945575
 20
-5.802687050160194
 10
8.136832744344673
 20
-5.786178734199001
 10
8.110899737258314
 20
-5.770964589954095
 10
8.088169306508859
 20
-5.757629517335324
 10
8.069514988671798
 20
-5.746685670426245
 10
8.055653388802181
 20
-5.738553391037697
 10
8.047117487409643
 20
-5.733545662220741
 10
8.044235227372425
 20
-5.731854908419141
  0
LINE
  5
A1A
330
1E
100
AcDbEntity
  8
0
  6
Continuous
100
AcDbLine
 10
8.618235289808055
 20
-4.372854634372941
 30
0.0
 11
7.868235207206339
 21
-4.372854634372941
 31
0.0
  0
ARC
  5
A1B
330
1E
100
AcDbEntity
  8
0
  6
Continuous
100
AcDbCircle
 10
8.243235317366988
 20
-4.89285486914936
 30
0.0
 40
0.2185000000000006
100
AcDbArc
 50
0.0
 51
180.0
  0
LINE
  5
A1C
330
1E
100
AcDbEntity
  8
0
  6
Continuous
100
AcDbLine
 10
7.743235291216038
 20
-5.514254835487085
 30
0.0
 11
7.743235291216038
 21
-4.49785484369319
 31
0.0
  0
LINE
  5
A1D
330
1E
100
AcDbEntity
  8
0
  6
HIDDEN
100
AcDbLine
 10
7.144235304248333
 20
-5.731854908419141
 30
0.0
 11
8.044235227372425
 21
-5.731854908419141
 31
0.0
  0
LINE
  5
A1E
330
1E
100
AcDbEntity
  8
0
  6
Continuous
100
AcDbLine
 10
6.860735285931404
 20
-6.730854861219771
 30
0.0
 11
7.296735342554878
 21
-6.730854861219771
 31
0.0
  0
LINE
  5
A1F
330
1E
100
AcDbEntity
  8
0
  6
Continuous
100
AcDbLine
 10
6.860735285931404
 20
-6.445854900230306
 30
0.0
 11
6.860735285931404
 21
-6.730854861219771
 31
0.0
  0
LWPOLYLINE
  5
A20
330
1E
100
AcDbEntity
  8
0
  6
HIDDEN
100
AcDbPolyline
 90
        9
 70
   128
 43
0.0
 10
7.144235304248333
 20
-5.669854931314834
 10
7.147117564285554
 20
-5.672737191352052
 10
7.155653319013119
 20
-5.681272799414646
 10
7.169514918882736
 20
-5.695134399284262
 10
7.188169236719797
 20
-5.713788717121325
 10
7.210899814134229
 20
-5.736519441200726
 10
7.236832821220584
 20
-5.762452448287081
 10
7.264971816156513
 20
-5.790591296558039
 10
7.294235291435683
 20
-5.819854771837208
  0
LWPOLYLINE
  5
A21
330
1E
100
AcDbEntity
  8
0
  6
HIDDEN
100
AcDbPolyline
 90
        9
 70
   128
 43
0.0
 10
7.144235304248333
 20
-5.731854908419141
 10
7.147117564285554
 20
-5.733545662220741
 10
7.155653319013119
 20
-5.738553391037697
 10
7.169514918882736
 20
-5.746685670426245
 10
7.188169236719797
 20
-5.757629517335324
 10
7.210899814134229
 20
-5.770964589954095
 10
7.236832821220584
 20
-5.786178734199001
 10
7.264971816156513
 20
-5.802687050160194
 10
7.294235291435683
 20
-5.819854771837208
  0
LINE
  5
A22
330
1E
100
AcDbEntity
  8
0
  6
HIDDEN
100
AcDbLine
 10
7.144235304248333
 20
-5.731854908419141
 30
0.0
 11
7.144235304248333
 21
-5.669854931314834
 31
0.0
  0
LINE
  5
A23
330
1E
100
AcDbEntity
  8
0
  6
HIDDEN
100
AcDbLine
 10
7.294235291435683
 20
-5.819854771837208
 30
0.0
 11
7.407235372715767
 21
-5.932854853117294
 31
0.0
  0
LINE
  5
A24
330
1E
100
AcDbEntity
  8
0
  6
HIDDEN
100
AcDbLine
 10
7.743235291216038
 20
-6.73285478478315
 30
0.0
 11
7.743235291216038
 21
-5.62345512066274
 31
0.0
  0
LINE
  5
A25
330
1E
100
AcDbEntity
  8
0
  6
Continuous
100
AcDbLine
 10
7.993235416526587
 20
-5.529854708609352
 30
0.0
 11
7.743235291216038
 21
-5.529854708609352
 31
0.0
  0
LINE
  5
A26
330
1E
100
AcDbEntity
  8
0
  6
Continuous
100
AcDbLine
 10
7.743235291216038
 20
-5.60785466088058
 30
0.0
 11
7.743235291216038
 21
-5.529854708609352
 31
0.0
  0
LINE
  5
A27
330
1E
100
AcDbEntity
  8
0
  6
HIDDEN
100
AcDbLine
 10
7.743235291216038
 20
-5.62345512066274
 30
0.0
 11
7.743235291216038
 21
-5.60785466088058
 31
0.0
  0
LINE
  5
A28
330
1E
100
AcDbEntity
  8
0
  6
Continuous
100
AcDbLine
 10
7.743235291216038
 20
-5.529854708609352
 30
0.0
 11
7.743235291216038
 21
-5.514254835487085
 31
0.0
  0
LINE
  5
A29
330
1E
100
AcDbEntity
  8
0
  6
HIDDEN
100
AcDbLine
 10
7.993235416526587
 20
-5.62345512066274
 30
0.0
 11
7.993235416526587
 21
-5.904854749910208
 31
0.0
  0
LINE
  5
A2A
330
1E
100
AcDbEntity
  8
0
  6
HIDDEN
100
AcDbLine
 10
8.044235227372425
 20
-5.731854908419141
 30
0.0
 11
8.044235227372425
 21
-5.669854931314834
 31
0.0
  0
LINE
  5
A2B
330
1E
100
AcDbEntity
  8
0
  6
Continuous
100
AcDbLine
 10
7.993235416526587
 20
-5.529854708609352
 30
0.0
 11
7.993235416526587
 21
-5.60785466088058
 31
0.0
  0
LINE
  5
A2C
330
1E
100
AcDbEntity
  8
0
  6
HIDDEN
100
AcDbLine
 10
7.993235416526587
 20
-5.60785466088058
 30
0.0
 11
7.993235416526587
 21
-5.62345512066274
 31
0.0
  0
LINE
  5
A2D
330
1E
100
AcDbEntity
  8
0
  6
Continuous
100
AcDbLine
 10
8.024735239304614
 20
-4.892854707287725
 30
0.0
 11
8.024735239304614
 21
-5.142855125928221
 31
0.0
  0
ARC
  5
A2E
330
1E
100
AcDbEntity
  8
0
  6
Continuous
100
AcDbCircle
 10
7.868235317366984
 20
-4.497854869149362
 30
0.0
 40
0.1250000000000009
100
AcDbArc
 50
90.0
 51
180.0
  0
LINE
  5
A2F
330
1E
100
AcDbEntity
  8
0
  6
Continuous
100
AcDbLine
 10
8.743235205798356
 20
-5.514254835487085
 30
0.0
 11
8.743235205798356
 21
-4.49785484369319
 31
0.0
  0
LWPOLYLINE
  5
A30
330
1E
100
AcDbEntity
  8
0
  6
HIDDEN
100
AcDbPolyline
 90
        9
 70
   128
 43
0.0
 10
8.90623542947253
 20
-6.531854840084996
 10
8.903353169435312
 20
-6.528972580047778
 10
8.894817268042771
 20
-6.520436678655238
 10
8.880955668173157
 20
-6.506575372115566
 10
8.862301350336096
 20
-6.487920760948561
 10
8.839570919586638
 20
-6.465190330199103
 10
8.813637912500283
 20
-6.439257323112748
 10
8.78549877089938
 20
-6.41111847484179
 10
8.756235295620211
 20
-6.381854999562619
  0
LWPOLYLINE
  5
A31
330
1E
100
AcDbEntity
  8
0
  6
HIDDEN
100
AcDbPolyline
 90
        9
 70
   128
 43
0.0
 10
8.844235452368224
 20
-6.531854840084996
 10
8.842544405236679
 20
-6.528972580047778
 10
8.837536676419723
 20
-6.520436678655238
 10
8.829404690361116
 20
-6.506575372115566
 10
8.818460843452037
 20
-6.487920760948561
 10
8.805125477503324
 20
-6.465190330199103
 10
8.789911333258416
 20
-6.439257323112748
 10
8.773403310627166
 20
-6.41111847484179
 10
8.756235295620211
 20
-6.381854999562619
  0
LINE
  5
A32
330
1E
100
AcDbEntity
  8
0
  6
HIDDEN
100
AcDbLine
 10
8.743235205798356
 20
-6.73285478478315
 30
0.0
 11
8.743235205798356
 21
-5.62345512066274
 31
0.0
  0
LINE
  5
A33
330
1E
100
AcDbEntity
  8
0
  6
Continuous
100
AcDbLine
 10
8.638235405431679
 20
-6.263854816044144
 30
0.0
 11
8.307235442504826
 21
-5.932854853117294
 31
0.0
  0
CIRCLE
  5
A34
330
1E
100
AcDbEntity
  8
0
  6
Continuous
100
AcDbCircle
 10
8.250235317367007
 20
-6.32585486914979
 30
0.0
 40
0.0779999999999994
  0
CIRCLE
  5
A35
330
1E
100
AcDbEntity
  8
0
  6
HIDDEN
100
AcDbCircle
 10
8.250235317367007
 20
-6.32585486914979
 30
0.0
 40
0.1199999999999992
  0
LINE
  5
A36
330
1E
100
AcDbEntity
  8
0
  6
HIDDEN
100
AcDbLine
 10
8.756235295620211
 20
-6.381854999562619
 30
0.0
 11
8.638235405431679
 21
-6.263854816044144
 31
0.0
  0
ARC
  5
A37
330
1E
100
AcDbEntity
  8
0
  6
HIDDEN
100
AcDbCircle
 10
8.368235317366984
 20
-5.90485486914936
 30
0.0
 40
0.125
100
AcDbArc
 50
270.0000000000008
 51
0.0
  0
LINE
  5
A38
330
1E
100
AcDbEntity
  8
0
  6
Continuous
100
AcDbLine
 10
8.368235457827445
 20
-5.529854708609352
 30
0.0
 11
8.49323537381775
 21
-5.529854708609352
 31
0.0
  0
LINE
  5
A39
330
1E
100
AcDbEntity
  8
0
  6
HIDDEN
100
AcDbLine
 10
8.118235332516892
 20
-6.029854959230457
 30
0.0
 11
8.368235457827445
 21
-6.029854959230457
 31
0.0
  0
LINE
  5
A3A
330
1E
100
AcDbEntity
  8
0
  6
HIDDEN
100
AcDbLine
 10
8.307235442504826
 20
-5.932854853117294
 30
0.0
 11
8.194235361224741
 21
-5.819854771837208
 31
0.0
  0
LINE
  5
A3B
330
1E
100
AcDbEntity
  8
0
  6
Continuous
100
AcDbLine
 10
8.243235248507197
 20
-5.529854708609352
 30
0.0
 11
8.368235457827445
 21
-5.529854708609352
 31
0.0
  0
LINE
  5
A3C
330
1E
100
AcDbEntity
  8
0
  6
Continuous
100
AcDbLine
 10
8.118235332516892
 20
-5.60785466088058
 30
0.0
 11
8.118235332516892
 21
-5.529854708609352
 31
0.0
  0
LINE
  5
A3D
330
1E
100
AcDbEntity
  8
0
  6
Continuous
100
AcDbLine
 10
8.118235332516892
 20
-5.529854708609352
 30
0.0
 11
8.243235248507197
 21
-5.529854708609352
 31
0.0
  0
LINE
  5
A3E
330
1E
100
AcDbEntity
  8
0
  6
Continuous
100
AcDbLine
 10
8.368235457827445
 20
-5.529854708609352
 30
0.0
 11
8.368235457827445
 21
-5.60785466088058
 31
0.0
  0
LINE
  5
A3F
330
1E
100
AcDbEntity
  8
0
  6
HIDDEN
100
AcDbLine
 10
8.49323537381775
 20
-5.904854749910208
 30
0.0
 11
8.49323537381775
 21
-5.62345512066274
 31
0.0
  0
LINE
  5
A40
330
1E
100
AcDbEntity
  8
0
  6
Continuous
100
AcDbLine
 10
8.743235205798356
 20
-5.529854708609352
 30
0.0
 11
8.49323537381775
 21
-5.529854708609352
 31
0.0
  0
LINE
  5
A41
330
1E
100
AcDbEntity
  8
0
  6
Continuous
100
AcDbLine
 10
8.49323537381775
 20
-5.60785466088058
 30
0.0
 11
8.49323537381775
 21
-5.529854708609352
 31
0.0
  0
LINE
  5
A42
330
1E
100
AcDbEntity
  8
0
  6
HIDDEN
100
AcDbLine
 10
8.49323537381775
 20
-5.62345512066274
 30
0.0
 11
8.49323537381775
 21
-5.60785466088058
 31
0.0
  0
LINE
  5
A43
330
1E
100
AcDbEntity
  8
0
  6
Continuous
100
AcDbLine
 10
8.743235205798356
 20
-5.60785466088058
 30
0.0
 11
8.743235205798356
 21
-5.529854708609352
 31
0.0
  0
LINE
  5
A44
330
1E
100
AcDbEntity
  8
0
  6
HIDDEN
100
AcDbLine
 10
8.743235205798356
 20
-5.62345512066274
 30
0.0
 11
8.743235205798356
 21
-5.60785466088058
 31
0.0
  0
LINE
  5
A45
330
1E
100
AcDbEntity
  8
0
  6
Continuous
100
AcDbLine
 10
8.743235205798356
 20
-5.529854708609352
 30
0.0
 11
8.743235205798356
 21
-5.514254835487085
 31
0.0
  0
LINE
  5
A46
330
1E
100
AcDbEntity
  8
0
  6
HIDDEN
100
AcDbLine
 10
8.844235452368224
 20
-6.531854840084996
 30
0.0
 11
8.90623542947253
 21
-6.531854840084996
 31
0.0
  0
ARC
  5
A47
330
1E
100
AcDbEntity
  8
0
  6
Continuous
100
AcDbCircle
 10
8.891235317367005
 20
-5.68485486914977
 30
0.0
 40
0.077
100
AcDbArc
 50
0.0
 51
90.0
  0
SPLINE
  5
A48
330
1E
100
AcDbEntity
  8
0
  6
HIDDEN
100
AcDbSpline
210
0.0
220
0.0
230
1.0
 70
     8
 71
     3
 72
    10
 73
     6
 74
     0
 42
0.0000000001
 43
0.0000000001
 40
0.0
 40
0.0
 40
0.0
 40
0.0
 40
0.5
 40
0.5
 40
1.0
 40
1.0
 40
1.0
 40
1.0
 10
8.891235317367005
 20
-5.74493782864944
 30
0.0
 10
8.895162309247805
 20
-5.734924002066122
 30
0.0
 10
8.899065119369527
 20
-5.724910175482804
 30
0.0
 10
8.904618724546683
 20
-5.70488252231617
 30
0.0
 10
8.906235321430465
 20
-5.694868695732854
 30
0.0
 10
8.906235321430465
 20
-5.684854869149535
 30
0.0
  0
LINE
  5
A49
330
1E
100
AcDbEntity
  8
0
  6
HIDDEN
100
AcDbLine
 10
8.90623542947253
 20
-5.669854931314834
 30
0.0
 11
8.90623542947253
 21
-5.71489633099274
 31
0.0
  0
SPLINE
  5
A4A
330
1E
100
AcDbEntity
  8
0
  6
HIDDEN
100
AcDbSpline
210
0.0
220
0.0
230
1.0
 70
     8
 71
     3
 72
    10
 73
     6
 74
     0
 42
0.0000000001
 43
0.0000000001
 40
0.0
 40
0.0
 40
0.0
 40
0.0
 40
0.5
 40
0.5
 40
1.0
 40
1.0
 40
1.0
 40
1.0
 10
8.906235320792433
 20
-5.714896344532053
 30
0.0
 10
8.902768670412893
 20
-5.719316322757624
 30
0.0
 10
8.900069064573955
 20
-5.724278229874627
 30
0.0
 10
8.895332191968698
 20
-5.734465036356064
 30
0.0
 10
8.893286961654496
 20
-5.739706137133596
 30
0.0
 10
8.891235317367005
 20
-5.74493782864944
 30
0.0
  0
SPLINE
  5
A4B
330
1E
100
AcDbEntity
  8
0
  6
HIDDEN
100
AcDbSpline
210
0.0
220
0.0
230
1.0
 70
     8
 71
     3
 72
    10
 73
     6
 74
     0
 42
0.0000000001
 43
0.0000000001
 40
0.0
 40
0.0
 40
0.0
 40
0.0
 40
0.5
 40
0.5
 40
1.0
 40
1.0
 40
1.0
 40
1.0
 10
8.891235317366987
 20
-5.66985486508631
 30
0.0
 10
8.881221490783666
 20
-5.66985486508631
 30
0.0
 10
8.871207664200355
 20
-5.671471461970096
 30
0.0
 10
8.851180011033715
 20
-5.677025067147251
 30
0.0
 10
8.841166184450397
 20
-5.68092787726897
 30
0.0
 10
8.831152357867079
 20
-5.68485486914977
 30
0.0
  0
LINE
  5
A4C
330
1E
100
AcDbEntity
  8
0
  6
Continuous
100
AcDbLine
 10
8.853235401733371
 20
-5.60785466088058
 30
0.0
 11
8.891235416087297
 21
-5.60785466088058
 31
0.0
  0
SPLINE
  5
A4D
330
1E
100
AcDbEntity
  8
0
  6
HIDDEN
100
AcDbSpline
210
0.0
220
0.0
230
1.0
 70
     8
 71
     3
 72
    10
 73
     6
 74
     0
 42
0.0000000001
 43
0.0000000001
 40
0.0
 40
0.0
 40
0.0
 40
0.0
 40
0.5
 40
0.5
 40
1.0
 40
1.0
 40
1.0
 40
1.0
 10
8.831152357867079
 20
-5.68485486914977
 30
0.0
 10
8.836389541691918
 20
-5.682801071015035
 30
0.0
 10
8.841630547068501
 20
-5.680756090068911
 30
0.0
 10
8.851829250525128
 20
-5.676012473839399
 30
0.0
 10
8.856796215688262
 20
-5.67330398532122
 30
0.0
 10
8.861193842797852
 20
-5.669854865086115
 30
0.0
  0
LINE
  5
A4E
330
1E
100
AcDbEntity
  8
0
  6
HIDDEN
100
AcDbLine
 10
8.861193736464677
 20
-5.669854931314834
 30
0.0
 11
8.90623542947253
 21
-5.669854931314834
 31
0.0
  0
LWPOLYLINE
  5
A4F
330
1E
100
AcDbEntity
  8
0
  6
HIDDEN
100
AcDbPolyline
 90
        9
 70
   128
 43
0.0
 10
8.891235416087297
 20
-5.684854944700065
 10
8.894161675616231
 20
-5.681928391841186
 10
8.896975589776324
 20
-5.679114477681096
 10
8.899568919817951
 20
-5.676521440969411
 10
8.901841933559904
 20
-5.674248133897515
 10
8.903707218678636
 20
-5.672382848778781
 10
8.905093495997576
 20
-5.670996571459841
 10
8.90594708613683
 20
-5.670142981320587
 10
8.90623542947253
 20
-5.669854931314834
  0
LINE
  5
A50
330
1E
100
AcDbEntity
  8
0
  6
Continuous
100
AcDbLine
 10
8.968235406576837
 20
-5.684854944700065
 30
0.0
 11
8.968235406576837
 21
-5.723240981261294
 31
0.0
  0
ARC
  5
A51
330
1E
100
AcDbEntity
  8
0
  6
Continuous
100
AcDbCircle
 10
8.618235317366984
 20
-4.497854869149362
 30
0.0
 40
0.1250000000000018
100
AcDbArc
 50
0.0
 51
90.0
  0
LINE
  5
A52
330
1E
100
AcDbEntity
  8
0
  6
Continuous
100
AcDbLine
 10
8.461735257709779
 20
-5.142855125928221
 30
0.0
 11
8.461735257709779
 21
-4.892854707287725
 31
0.0
  0
LINE
  5
A53
330
1E
100
AcDbEntity
  8
0
  6
Continuous
100
AcDbLine
 10
8.743235205798356
 20
-0.3059789992505095
 30
0.0
 11
8.743235205798356
 21
-1.315979118309613
 31
0.0
  0
LINE
  5
A54
330
1E
100
AcDbEntity
  8
0
  6
Continuous
100
AcDbLine
 10
7.743235291216038
 20
-0.3059789992505095
 30
0.0
 11
7.743235291216038
 21
-1.315979118309613
 31
0.0
  0
ARC
  5
A55
330
1E
100
AcDbEntity
  8
0
  6
Continuous
100
AcDbCircle
 10
8.243235317366988
 20
-0.920979092853452
 30
0.0
 40
0.2185000000000006
100
AcDbArc
 50
180.0
 51
0.0
  0
LINE
  5
A56
330
1E
100
AcDbEntity
  8
0
  6
Continuous
100
AcDbLine
 10
7.868235207206339
 20
-1.440979327629861
 30
0.0
 11
8.618235289808055
 21
-1.440979327629861
 31
0.0
  0
ARC
  5
A57
330
1E
100
AcDbEntity
  8
0
  6
Continuous
100
AcDbCircle
 10
7.868235317366988
 20
-1.315979092853451
 30
0.0
 40
0.1250000000000009
100
AcDbArc
 50
180.0000000000012
 51
270.0000000000008
  0
ARC
  5
A58
330
1E
100
AcDbEntity
  8
0
  6
Continuous
100
AcDbCircle
 10
8.618235317366988
 20
-1.315979092853451
 30
0.0
 40
0.1250000000000004
100
AcDbArc
 50
270.0000000000008
 51
0.0
  0
ARC
  5
A59
330
1E
100
AcDbEntity
  8
0
  6
Continuous
100
AcDbCircle
 10
8.243235317366988
 20
-0.6709790928534538
 30
0.0
 40
0.2185000000000006
100
AcDbArc
 50
0.0000000000002036
 51
180.0
  0
CIRCLE
  5
A5A
330
1E
100
AcDbEntity
  8
0
  6
Continuous
100
AcDbCircle
 10
8.250235317366986
 20
0.53702090714674
 30
0.0
 40
0.2499999999999998
  0
CIRCLE
  5
A5B
330
1E
100
AcDbEntity
  8
0
  6
Continuous
100
AcDbCircle
 10
8.250235317366986
 20
0.53702090714674
 30
0.0
 40
0.1792913385826769
  0
CIRCLE
  5
A5C
330
1E
100
AcDbEntity
  8
0
  6
Continuous
100
AcDbCircle
 10
8.250235317366986
 20
0.53702090714674
 30
0.0
 40
0.2071135629907586
  0
CIRCLE
  5
A5D
330
1E
100
AcDbEntity
  8
0
  6
Continuous
100
AcDbCircle
 10
8.250235317366986
 20
0.53702090714674
 30
0.0
 40
0.2099999999999998
  0
LINE
  5
A5E
330
1E
100
AcDbEntity
  8
0
  6
Continuous
100
AcDbLine
 10
8.024735239304614
 20
-0.6709788360745819
 30
0.0
 11
8.024735239304614
 21
-0.9209792547150783
 31
0.0
  0
LINE
  5
A5F
330
1E
100
AcDbEntity
  8
0
  6
Continuous
100
AcDbLine
 10
8.295166088597703
 20
0.4582270525759676
 30
0.0
 11
8.272397231625479
 21
0.5260047496022296
 31
0.0
  0
LINE
  5
A60
330
1E
100
AcDbEntity
  8
0
  6
Continuous
100
AcDbLine
 10
8.171441277877271
 20
0.4920902347189298
 30
0.0
 11
8.239219268233476
 21
0.5148590916911538
 31
0.0
  0
LINE
  5
A61
330
1E
100
AcDbEntity
  8
0
  6
Continuous
100
AcDbLine
 10
8.160295619966198
 20
0.5252681981109327
 30
0.0
 11
8.171441277877271
 21
0.4920902347189298
 31
0.0
  0
LINE
  5
A62
330
1E
100
AcDbEntity
  8
0
  6
Continuous
100
AcDbLine
 10
8.239219268233476
 20
0.5148590916911538
 30
0.0
 11
8.261988125205697
 21
0.4470813946648918
 31
0.0
  0
LINE
  5
A63
330
1E
100
AcDbEntity
  8
0
  6
Continuous
100
AcDbLine
 10
8.461735257709779
 20
-0.9209792547150783
 30
0.0
 11
8.461735257709779
 21
-0.6709788360745819
 31
0.0
  0
LINE
  5
A64
330
1E
100
AcDbEntity
  8
0
  6
Continuous
100
AcDbLine
 10
8.261988125205697
 20
0.4470813946648918
 30
0.0
 11
8.295166088597703
 21
0.4582270525759676
 31
0.0
  0
ARC
  5
A65
330
1E
100
AcDbEntity
  8
0
  6
Continuous
100
AcDbCircle
 10
9.016235317366984
 20
-0.2289790928532618
 30
0.0
 40
0.0770000000000003
100
AcDbArc
 50
270.0000000000008
 51
0.0
  0
LINE
  5
A66
330
1E
100
AcDbEntity
  8
0
  6
Continuous
100
AcDbLine
 10
8.261251573714403
 20
0.5591827129942289
 30
0.0
 11
8.238482716742183
 21
0.6269604100204909
 31
0.0
  0
LINE
  5
A67
330
1E
100
AcDbEntity
  8
0
  6
Continuous
100
AcDbLine
 10
8.20530475335018
 20
0.6158147521094151
 30
0.0
 11
8.228073610322404
 21
0.5480370550831566
 31
0.0
  0
LINE
  5
A68
330
1E
100
AcDbEntity
  8
0
  6
Continuous
100
AcDbLine
 10
8.272397231625479
 20
0.5260047496022296
 30
0.0
 11
8.340174928651741
 21
0.54877360657445
 31
0.0
  0
LINE
  5
A69
330
1E
100
AcDbEntity
  8
0
  6
Continuous
100
AcDbLine
 10
8.329029270740662
 20
0.5819515699664528
 30
0.0
 11
8.261251573714403
 21
0.5591827129942289
 31
0.0
  0
LINE
  5
A6A
330
1E
100
AcDbEntity
  8
0
  6
Continuous
100
AcDbLine
 10
8.228073610322404
 20
0.5480370550831566
 30
0.0
 11
8.160295619966198
 21
0.5252681981109327
 31
0.0
  0
LINE
  5
A6B
330
1E
100
AcDbEntity
  8
0
  6
Continuous
100
AcDbLine
 10
8.340174928651741
 20
0.54877360657445
 30
0.0
 11
8.329029270740662
 21
0.5819515699664528
 31
0.0
  0
LINE
  5
A6C
330
1E
100
AcDbEntity
  8
0
  6
Continuous
100
AcDbLine
 10
8.238482716742183
 20
0.6269604100204909
 30
0.0
 11
8.20530475335018
 21
0.6158147521094151
 31
0.0
  0
LINE
  5
A6D
330
1E
100
AcDbEntity
  8
0
  6
Continuous
100
AcDbLine
 10
14.16194395292011
 20
-0.0819790535836624
 30
0.0
 11
14.71194405260536
 21
-0.0819790535836624
 31
0.0
  0
LINE
  5
A6E
330
1E
100
AcDbEntity
  8
0
  6
Continuous
100
AcDbLine
 10
14.16194395292012
 20
0.7180208780821929
 30
0.0
 11
14.71194405260537
 21
0.7180208780821929
 31
0.0
  0
LINE
  5
A6F
330
1E
100
AcDbEntity
  8
0
  6
Continuous
100
AcDbLine
 10
14.16194395292012
 20
1.618020801206281
 30
0.0
 11
14.71194405260537
 21
1.618020801206281
 31
0.0
  0
LINE
  5
A70
330
1E
100
AcDbEntity
  8
0
  6
Continuous
100
AcDbLine
 10
14.0119438190678
 20
0.2560209351449565
 30
0.0
 11
14.0119438190678
 21
1.24302105323537
 31
0.0
  0
LINE
  5
A71
330
1E
100
AcDbEntity
  8
0
  6
Continuous
100
AcDbLine
 10
14.0739437961721
 20
0.006020809834407
 30
0.0
 11
14.07394379617211
 21
1.468020960683904
 31
0.0
  0
LINE
  5
A72
330
1E
100
AcDbEntity
  8
0
  6
Continuous
100
AcDbLine
 10
13.63595173589376
 20
0.3406894503803777
 30
0.0
 11
13.63595173589376
 21
0.7441345764145204
 31
0.0
  0
LINE
  5
A73
330
1E
100
AcDbEntity
  8
0
  6
Continuous
100
AcDbLine
 10
13.55295989462259
 20
0.4364695972532822
 30
0.0
 11
13.55295989462259
 21
0.6375722074321005
 31
0.0
  0
LINE
  5
A74
330
1E
100
AcDbEntity
  8
0
  6
Continuous
100
AcDbLine
 10
13.66894372810078
 20
0.302020937082343
 30
0.0
 11
13.66894372810078
 21
0.7720208676030396
 31
0.0
  0
LINE
  5
A75
330
1E
100
AcDbEntity
  8
0
  6
Continuous
100
AcDbLine
 10
14.39697515781958
 20
0.4390209811128117
 30
0.0
 11
14.39697515781958
 21
0.635020823572571
 31
0.0
  0
LINE
  5
A76
330
1E
100
AcDbEntity
  8
0
  6
Continuous
100
AcDbLine
 10
14.41697556677315
 20
0.615021001278894
 30
0.0
 11
14.41697556677315
 21
0.4630813698318157
 31
0.0
  0
LINE
  5
A77
330
1E
100
AcDbEntity
  8
0
  6
Continuous
100
AcDbLine
 10
14.16350329490646
 20
0.3920210173937342
 30
0.0
 11
14.16350329490646
 21
0.512020831145648
 31
0.0
  0
LINE
  5
A78
330
1E
100
AcDbEntity
  8
0
  6
Continuous
100
AcDbLine
 10
13.81594368327808
 20
-0.2439790221462026
 30
0.0
 11
14.42894401517927
 21
-0.2439790221462026
 31
0.0
  0
LINE
  5
A79
330
1E
100
AcDbEntity
  8
0
  6
Continuous
100
AcDbLine
 10
13.81594368327808
 20
-0.3059789992505095
 30
0.0
 11
14.42894401517927
 21
-0.3059789992505095
 31
0.0
  0
HATCH
  5
A7A
330
1E
100
AcDbEntity
  8
0
  6
Continuous
100
AcDbHatch
 10
0.0
 20
0.0
 30
0.0
210
0.0
220
0.0
230
1.0
  2
ANSI31
 70
     0
 71
     0
 91
        1
 92
        0
 93
        4
 72
     1
 10
14.0509438777225
 20
-0.2439790928532552
 11
14.0509438777225
 21
0.2560209071467412
 72
     1
 10
14.0509438777225
 20
0.2560209071467412
 11
13.8009438777225
 21
0.2560209071467412
 72
     1
 10
13.8009438777225
 20
0.2560209071467412
 11
13.8009438777225
 21
-0.2439790928532588
 72
     1
 10
13.8009438777225
 20
-0.2439790928532552
 11
14.0509438777225
 21
-0.2439790928532552
 97
        0
 75
     0
 76
     1
 52
0.0
 41
1.0
 77
     0
 78
     1
 53
45.0
 43
0.0
 44
0.0
 45
-0.0883883476483184
 46
0.0883883476483185
 79
     0
 98
        1
 10
0.0
 20
0.0
  0
LINE
  5
A7B
330
1E
100
AcDbEntity
  8
0
  6
Continuous
100
AcDbLine
 10
14.0509437952034
 20
-0.2439790221462026
 30
0.0
 11
13.80094396322279
 21
-0.2439790221462026
 31
0.0
  0
LINE
  5
A7C
330
1E
100
AcDbEntity
  8
0
  6
Continuous
100
AcDbLine
 10
13.80094396322279
 20
0.2560209351449565
 30
0.0
 11
14.0509437952034
 21
0.2560209351449565
 31
0.0
  0
SPLINE
  5
A7D
330
1E
100
AcDbEntity
  8
0
  6
Continuous
100
AcDbSpline
210
0.0
220
0.0
230
1.0
 70
    24
 71
     1
 72
     4
 73
     2
 74
     0
 42
0.0000000001
 43
0.0000000001
 40
0.0
 40
0.0
 40
1.0
 40
1.0
 10
13.8009439632228
 20
0.4390209811128117
 30
0.0
 10
14.0119438190678
 20
0.4390209811128117
 30
0.0
  0
LINE
  5
A7E
330
1E
100
AcDbEntity
  8
0
  6
Continuous
100
AcDbLine
 10
13.80094396322279
 20
0.2560209351449565
 30
0.0
 11
13.80094396322279
 21
-0.2439790221462026
 31
0.0
  0
ARC
  5
A7F
330
1E
100
AcDbEntity
  8
0
  6
Continuous
100
AcDbCircle
 10
13.8159438777225
 20
-0.2289790928532511
 30
0.0
 40
0.0150000000000006
100
AcDbArc
 50
179.9999999999873
 51
270.0000000000075
  0
ARC
  5
A80
330
1E
100
AcDbEntity
  8
0
  6
Continuous
100
AcDbCircle
 10
13.8159438777225
 20
-0.2289790928532511
 30
0.0
 40
0.077
100
AcDbArc
 50
179.9999999999991
 51
270.0000000000008
  0
SPLINE
  5
A81
330
1E
100
AcDbEntity
  8
0
  6
Continuous
100
AcDbSpline
210
0.0
220
0.0
230
1.0
 70
    24
 71
     1
 72
     4
 73
     2
 74
     0
 42
0.0000000001
 43
0.0000000001
 40
0.0
 40
0.0
 40
1.0
 40
1.0
 10
13.63595173589376
 20
0.3299072282708622
 30
0.0
 10
13.66894372810078
 20
0.3270208616144146
 30
0.0
  0
ARC
  5
A82
330
1E
100
AcDbEntity
  8
0
  6
Continuous
100
AcDbCircle
 10
13.63169978323433
 20
0.4364697260443791
 30
0.0
 40
0.0787401574803151
100
AcDbArc
 50
179.9999999999996
 51
270.0000000000008
  0
SPLINE
  5
A83
330
1E
100
AcDbEntity
  8
0
  6
Continuous
100
AcDbSpline
210
0.0
220
0.0
230
1.0
 70
    24
 71
     1
 72
     4
 73
     2
 74
     0
 42
0.0000000001
 43
0.0000000001
 40
0.0
 40
0.0
 40
1.0
 40
1.0
 10
13.63169962501451
 20
0.3577295735314223
 30
0.0
 10
13.63595173589376
 20
0.3577295735314223
 30
0.0
  0
LINE
  5
A84
330
1E
100
AcDbEntity
  8
0
  6
Continuous
100
AcDbLine
 10
13.63595173589376
 20
0.3299072282708622
 30
0.0
 11
13.63595173589376
 21
0.3406894503803777
 31
0.0
  0
LINE
  5
A85
330
1E
100
AcDbEntity
  8
0
  6
Continuous
100
AcDbLine
 10
13.76194398708717
 20
-0.1289790173027363
 30
0.0
 11
13.76194398708717
 21
0.1190208911144914
 31
0.0
  0
LINE
  5
A86
330
1E
100
AcDbEntity
  8
0
  6
Continuous
100
AcDbLine
 10
13.82394396419148
 20
0.1190208911144914
 30
0.0
 11
13.82394396419148
 21
-0.1289790173027363
 31
0.0
  0
ARC
  5
A87
330
1E
100
AcDbEntity
  8
0
  6
Continuous
100
AcDbCircle
 10
13.8389438777225
 20
-0.1289790928532675
 30
0.0
 40
0.0769999999999987
100
AcDbArc
 50
179.9999999999996
 51
269.9999999999968
  0
ARC
  5
A88
330
1E
100
AcDbEntity
  8
0
  6
Continuous
100
AcDbCircle
 10
13.8389438777225
 20
-0.1289790928532675
 30
0.0
 40
0.0150000000000003
100
AcDbArc
 50
179.999999999991
 51
269.9999999999939
  0
LINE
  5
A89
330
1E
100
AcDbEntity
  8
0
  6
Continuous
100
AcDbLine
 10
13.76194398708717
 20
0.1190208911144914
 30
0.0
 11
13.82394396419148
 21
0.1190208911144914
 31
0.0
  0
SPLINE
  5
A8A
330
1E
100
AcDbEntity
  8
0
  6
Continuous
100
AcDbSpline
210
0.0
220
0.0
230
1.0
 70
    24
 71
     1
 72
     4
 73
     2
 74
     0
 42
0.0000000001
 43
0.0000000001
 40
0.0
 40
0.0
 40
1.0
 40
1.0
 10
13.68394403481596
 20
0.2870209236971099
 30
0.0
 10
13.72394367940332
 20
0.2870209236971099
 30
0.0
  0
ARC
  5
A8B
330
1E
100
AcDbEntity
  8
0
  6
Continuous
100
AcDbCircle
 10
13.68394387772251
 20
0.3020209071467441
 30
0.0
 40
0.0149999999999998
100
AcDbArc
 50
180.0
 51
270.0000000000008
  0
ARC
  5
A8C
330
1E
100
AcDbEntity
  8
0
  6
Continuous
100
AcDbCircle
 10
13.72394387772251
 20
0.3020209071467441
 30
0.0
 40
0.0150000000000006
100
AcDbArc
 50
270.0000000000008
 51
0.0
  0
LINE
  5
A8D
330
1E
100
AcDbEntity
  8
0
  6
Continuous
100
AcDbLine
 10
14.0509437952034
 20
0.2560209351449565
 30
0.0
 11
14.0509437952034
 21
-0.2439790221462026
 31
0.0
  0
LINE
  5
A8E
330
1E
100
AcDbEntity
  8
0
  6
Continuous
100
AcDbLine
 10
14.42894401517928
 20
-0.228979302090913
 30
0.0
 11
14.42894401517928
 21
-0.2439790221462026
 31
0.0
  0
LINE
  5
A8F
330
1E
100
AcDbEntity
  8
0
  6
Continuous
100
AcDbLine
 10
14.42894401517927
 20
-0.3059789992505095
 30
0.0
 11
14.42894401517927
 21
-0.2439790221462026
 31
0.0
  0
SPLINE
  5
A90
330
1E
100
AcDbEntity
  8
0
  6
Continuous
100
AcDbSpline
210
0.0
220
0.0
230
1.0
 70
    24
 71
     1
 72
     4
 73
     2
 74
     0
 42
0.0000000001
 43
0.0000000001
 40
0.0
 40
0.0
 40
1.0
 40
1.0
 10
14.16350329490646
 20
0.4390209811128117
 30
0.0
 10
14.39697515781958
 20
0.4390209811128117
 30
0.0
  0
ARC
  5
A91
330
1E
100
AcDbEntity
  8
0
  6
Continuous
100
AcDbCircle
 10
14.14101389551761
 20
0.324520907146713
 30
0.0
 40
0.0674999999999997
100
AcDbArc
 50
90.0
 51
173.5294410739646
  0
ARC
  5
A92
330
1E
100
AcDbEntity
  8
0
  6
Continuous
100
AcDbCircle
 10
14.16194387772253
 20
0.0060209071467128
 30
0.0
 40
0.1500000000000004
100
AcDbArc
 50
222.2685844295548
 51
270.0000000000008
  0
ARC
  5
A93
330
1E
100
AcDbEntity
  8
0
  6
Continuous
100
AcDbCircle
 10
14.16194387772253
 20
0.0060209071467128
 30
0.0
 40
0.088000000000001
100
AcDbArc
 50
179.9999999999991
 51
270.0000000000008
  0
LINE
  5
A94
330
1E
100
AcDbEntity
  8
0
  6
Continuous
100
AcDbLine
 10
14.0739437961721
 20
0.006020809834407
 30
0.0
 11
14.05094379520341
 21
0.006020809834407
 31
0.0
  0
SPLINE
  5
A95
330
1E
100
AcDbEntity
  8
0
  6
Continuous
100
AcDbSpline
210
0.0
220
0.0
230
1.0
 70
    24
 71
     1
 72
     4
 73
     2
 74
     0
 42
0.0000000001
 43
0.0000000001
 40
0.0
 40
0.0
 40
1.0
 40
1.0
 10
14.14101368804166
 20
0.3920210173937342
 30
0.0
 10
14.16350329490646
 20
0.3920210173937342
 30
0.0
  0
LINE
  5
A96
330
1E
100
AcDbEntity
  8
0
  6
Continuous
100
AcDbLine
 10
14.42894401517928
 20
-0.2059793011222233
 30
0.0
 11
14.42894401517928
 21
-0.228979302090913
 31
0.0
  0
SPLINE
  5
A97
330
1E
100
AcDbEntity
  8
0
  6
Continuous
100
AcDbSpline
210
0.0
220
0.0
230
1.0
 70
    24
 71
     1
 72
     4
 73
     2
 74
     0
 42
0.0000000001
 43
0.0000000001
 40
0.0
 40
0.0
 40
1.0
 40
1.0
 10
14.39697515781958
 20
0.4390209811128117
 30
0.0
 10
14.41697556677315
 20
0.4590208034064922
 30
0.0
  0
LINE
  5
A98
330
1E
100
AcDbEntity
  8
0
  6
Continuous
100
AcDbLine
 10
14.41697556677315
 20
0.4630813698318157
 30
0.0
 11
14.41697556677315
 21
0.4590208034064922
 31
0.0
  0
SPLINE
  5
A99
330
1E
100
AcDbEntity
  8
0
  6
Continuous
100
AcDbSpline
210
0.0
220
0.0
230
1.0
 70
    24
 71
     1
 72
     4
 73
     2
 74
     0
 42
0.0000000001
 43
0.0000000001
 40
0.0
 40
0.0
 40
1.0
 40
1.0
 10
14.0119438190678
 20
0.635020823572571
 30
0.0
 10
13.8009439632228
 20
0.635020823572571
 30
0.0
  0
SPLINE
  5
A9A
330
1E
100
AcDbEntity
  8
0
  6
Continuous
100
AcDbSpline
210
0.0
220
0.0
230
1.0
 70
    24
 71
     1
 72
     4
 73
     2
 74
     0
 42
0.0000000001
 43
0.0000000001
 40
0.0
 40
0.0
 40
1.0
 40
1.0
 10
13.66894372810078
 20
0.747020943070968
 30
0.0
 10
13.63595173589376
 20
0.7441345764145204
 30
0.0
  0
ARC
  5
A9B
330
1E
100
AcDbEntity
  8
0
  6
Continuous
100
AcDbCircle
 10
13.63169978323433
 20
0.6375720882491045
 30
0.0
 40
0.0787401574803151
100
AcDbArc
 50
90.0
 51
179.9999999999996
  0
SPLINE
  5
A9C
330
1E
100
AcDbEntity
  8
0
  6
Continuous
100
AcDbSpline
210
0.0
220
0.0
230
1.0
 70
    24
 71
     1
 72
     4
 73
     2
 74
     0
 42
0.0000000001
 43
0.0000000001
 40
0.0
 40
0.0
 40
1.0
 40
1.0
 10
13.63595173589376
 20
0.7163122311539603
 30
0.0
 10
13.63169962501451
 20
0.7163122311539603
 30
0.0
  0
SPLINE
  5
A9D
330
1E
100
AcDbEntity
  8
0
  6
Continuous
100
AcDbSpline
210
0.0
220
0.0
230
1.0
 70
    24
 71
     1
 72
     4
 73
     2
 74
     0
 42
0.0000000001
 43
0.0000000001
 40
0.0
 40
0.0
 40
1.0
 40
1.0
 10
13.72394367940332
 20
0.7870208809882726
 30
0.0
 10
13.68394403481596
 20
0.7870208809882726
 30
0.0
  0
ARC
  5
A9E
330
1E
100
AcDbEntity
  8
0
  6
Continuous
100
AcDbCircle
 10
13.68394387772251
 20
0.772020907146743
 30
0.0
 40
0.0149999999999998
100
AcDbArc
 50
90.0
 51
180.0
  0
ARC
  5
A9F
330
1E
100
AcDbEntity
  8
0
  6
Continuous
100
AcDbCircle
 10
13.72394387772251
 20
0.772020907146743
 30
0.0
 40
0.0150000000000006
100
AcDbArc
 50
0.0
 51
90.0
  0
SPLINE
  5
AA0
330
1E
100
AcDbEntity
  8
0
  6
Continuous
100
AcDbSpline
210
0.0
220
0.0
230
1.0
 70
    24
 71
     1
 72
     4
 73
     2
 74
     0
 42
0.0000000001
 43
0.0000000001
 40
0.0
 40
0.0
 40
1.0
 40
1.0
 10
14.39697515781958
 20
0.635020823572571
 30
0.0
 10
14.12111418458908
 20
0.635020823572571
 30
0.0
  0
ARC
  5
AA1
330
1E
100
AcDbEntity
  8
0
  6
Continuous
100
AcDbCircle
 10
14.14101389551761
 20
0.699520907146713
 30
0.0
 40
0.0675000000000009
100
AcDbArc
 50
186.4705589260535
 51
252.8537900010225
  0
ELLIPSE
  5
AA2
330
1E
100
AcDbEntity
  8
0
  6
Continuous
100
AcDbEllipse
 10
14.16194387772254
 20
0.5680209071467069
 30
0.0
 11
0.0000000000000036
 21
0.1499999999999987
 31
0.0
210
0.0
220
0.0
230
1.0
 40
0.5866666666666664
 41
0.0
 42
0.9520552612115276
  0
LINE
  5
AA3
330
1E
100
AcDbEntity
  8
0
  6
Continuous
100
AcDbLine
 10
14.16350329490646
 20
0.512020831145648
 30
0.0
 11
14.16350329490646
 21
0.6204408586682391
 31
0.0
  0
SPLINE
  5
AA4
330
1E
100
AcDbEntity
  8
0
  6
Continuous
100
AcDbSpline
210
0.0
220
0.0
230
1.0
 70
    24
 71
     1
 72
     4
 73
     2
 74
     0
 42
0.0000000001
 43
0.0000000001
 40
0.0
 40
0.0
 40
1.0
 40
1.0
 10
14.41697556677315
 20
0.615021001278894
 30
0.0
 10
14.39697515781958
 20
0.635020823572571
 30
0.0
  0
ELLIPSE
  5
AA5
330
1E
100
AcDbEntity
  8
0
  6
Continuous
100
AcDbEllipse
 10
14.16194387772254
 20
1.468020907146705
 30
0.0
 11
0.0
 21
0.1499999999999992
 31
0.0
210
0.0
220
0.0
230
1.0
 40
0.5866666666666762
 41
0.0
 42
1.5707963267949
  0
ARC
  5
AA6
330
1E
100
AcDbEntity
  8
0
  6
Continuous
100
AcDbCircle
 10
14.16194387772254
 20
1.468020907146705
 30
0.0
 40
0.1499999999999992
100
AcDbArc
 50
90.00000000000072
 51
137.7314155704498
  0
LINE
  5
AA7
330
1E
100
AcDbEntity
  8
0
  6
Continuous
100
AcDbLine
 10
14.07394379617211
 20
1.468020960683904
 30
0.0
 11
14.05094379520341
 21
1.468020960683904
 31
0.0
  0
LINE
  5
AA8
330
1E
100
AcDbEntity
  8
0
  6
Continuous
100
AcDbLine
 10
14.71194405260536
 20
-0.0819790535836624
 30
0.0
 11
14.81194375073365
 21
-0.0819790535836624
 31
0.0
  0
LINE
  5
AA9
330
1E
100
AcDbEntity
  8
0
  6
Continuous
100
AcDbLine
 10
14.81194375073365
 20
-0.0819790535836624
 30
0.0
 11
14.81194375073365
 21
-0.1439790306879694
 31
0.0
  0
LINE
  5
AAA
330
1E
100
AcDbEntity
  8
0
  6
Continuous
100
AcDbLine
 10
14.81194375073366
 20
0.818020869540426
 30
0.0
 11
14.81194375073366
 21
1.518020809748048
 31
0.0
  0
ARC
  5
AAB
330
1E
100
AcDbEntity
  8
0
  6
Continuous
100
AcDbCircle
 10
14.71194387772253
 20
0.8180209071467068
 30
0.0
 40
0.1000000000000032
100
AcDbArc
 50
270.0000000000008
 51
0.0000000000008142
  0
ARC
  5
AAC
330
1E
100
AcDbEntity
  8
0
  6
Continuous
100
AcDbCircle
 10
14.71194387772253
 20
1.518020907146706
 30
0.0
 40
0.0999999999999997
100
AcDbArc
 50
0.0000000000008142
 51
90.00000000000103
  0
LINE
  5
AAD
330
1E
100
AcDbEntity
  8
0
  6
Continuous
100
AcDbLine
 10
19.73754387728067
 20
-0.2059793011222233
 30
0.0
 11
20.0003438672261
 21
-0.2059793011222233
 31
0.0
  0
LINE
  5
AAE
330
1E
100
AcDbEntity
  8
0
  6
Continuous
100
AcDbLine
 10
19.73754387728067
 20
-0.2839792533934506
 30
0.0
 11
20.0003438672261
 21
-0.2839792533934506
 31
0.0
  0
LINE
  5
AAF
330
1E
100
AcDbEntity
  8
0
  6
Continuous
100
AcDbLine
 10
19.79994387393059
 20
-0.2839792533934506
 30
0.0
 11
19.86244386859198
 21
-0.2839792533934506
 31
0.0
  0
LINE
  5
AB0
330
1E
100
AcDbEntity
  8
0
  6
Continuous
100
AcDbLine
 10
19.79994387393059
 20
-0.2059793011222233
 30
0.0
 11
19.86244386859198
 21
-0.2059793011222233
 31
0.0
  0
LINE
  5
AB1
330
1E
100
AcDbEntity
  8
0
  6
Continuous
100
AcDbLine
 10
19.72194387582655
 20
0.9190208227803466
 30
0.0
 11
19.72194387582655
 21
-0.1903788413400633
 31
0.0
  0
ARC
  5
AB2
330
1E
100
AcDbEntity
  8
0
  6
Continuous
100
AcDbCircle
 10
19.73754387772252
 20
-0.1903790928534548
 30
0.0
 40
0.0936000000000021
100
AcDbArc
 50
179.9999999999998
 51
270.0000000000008
  0
LINE
  5
AB3
330
1E
100
AcDbEntity
  8
0
  6
Continuous
100
AcDbLine
 10
19.39394388074382
 20
-0.2059793011222233
 30
0.0
 11
19.39394388074382
 21
-0.2839792533934506
 31
0.0
  0
LINE
  5
AB4
330
1E
100
AcDbEntity
  8
0
  6
Continuous
100
AcDbLine
 10
19.51894387923317
 20
-0.2839792533934506
 30
0.0
 11
19.39394388074382
 21
-0.2839792533934506
 31
0.0
  0
LINE
  5
AB5
330
1E
100
AcDbEntity
  8
0
  6
Continuous
100
AcDbLine
 10
19.79994387393059
 20
-0.2839792533934506
 30
0.0
 11
19.51894387923317
 21
-0.2839792533934506
 31
0.0
  0
LINE
  5
AB6
330
1E
100
AcDbEntity
  8
0
  6
Continuous
100
AcDbLine
 10
19.79994387393059
 20
-0.2839792533934506
 30
0.0
 11
19.73754387728067
 21
-0.2839792533934506
 31
0.0
  0
ARC
  5
AB7
330
1E
100
AcDbEntity
  8
0
  6
Continuous
100
AcDbCircle
 10
19.56694387772251
 20
-0.1289790928532675
 30
0.0
 40
0.015000003407566
100
AcDbArc
 50
270.0000065079672
 51
359.9999999999985
  0
ARC
  5
AB8
330
1E
100
AcDbEntity
  8
0
  6
Continuous
100
AcDbCircle
 10
19.56694387772251
 20
-0.1289790928532675
 30
0.0
 40
0.077000003407566
100
AcDbArc
 50
269.9999999999981
 51
0.0
  0
LINE
  5
AB9
330
1E
100
AcDbEntity
  8
0
  6
Continuous
100
AcDbLine
 10
19.64525303304176
 20
-0.2059793011222233
 30
0.0
 11
19.56694387806642
 21
-0.2059793011222233
 31
0.0
  0
LINE
  5
ABA
330
1E
100
AcDbEntity
  8
0
  6
Continuous
100
AcDbLine
 10
19.64394387772252
 20
-0.1289790173027363
 30
0.0
 11
19.64394387772252
 21
-0.1903788413400633
 31
0.0
  0
LINE
  5
ABB
330
1E
100
AcDbEntity
  8
0
  6
Continuous
100
AcDbLine
 10
19.72194387582656
 20
0.0910207879074072
 30
0.0
 11
19.72194387582656
 21
-0.1903788413400633
 31
0.0
  0
LINE
  5
ABC
330
1E
100
AcDbEntity
  8
0
  6
Continuous
100
AcDbLine
 10
19.73754387728067
 20
-0.2059793011222233
 30
0.0
 11
19.79994387393059
 21
-0.2059793011222233
 31
0.0
  0
ARC
  5
ABD
330
1E
100
AcDbEntity
  8
0
  6
Continuous
100
AcDbCircle
 10
19.73754387772252
 20
-0.1903790928534548
 30
0.0
 40
0.0156000000000027
100
AcDbArc
 50
179.9999999999983
 51
270.0000000000008
  0
LINE
  5
ABE
330
1E
100
AcDbEntity
  8
0
  6
Continuous
100
AcDbLine
 10
19.72194387582656
 20
0.2160209972276554
 30
0.0
 11
19.72194387582656
 21
0.0910207879074072
 31
0.0
  0
HATCH
  5
ABF
330
1E
100
AcDbEntity
  8
0
  6
Continuous
100
AcDbHatch
 10
0.0
 20
0.0
 30
0.0
210
0.0
220
0.0
230
1.0
  2
ANSI31
 70
     0
 71
     0
 91
        1
 92
        0
 93
        4
 72
     1
 10
19.12894387772251
 20
1.122045639752577
 11
19.12894387772251
 21
0.5070209071466075
 72
     1
 10
19.12894387772251
 20
0.5070209071466075
 11
19.20694387772251
 21
0.5070209071466075
 72
     1
 10
19.20694387772251
 20
0.5070209071466075
 11
19.20694387772251
 21
1.122045639752577
 72
     1
 10
19.20694387772251
 20
1.122045639752577
 11
19.12894387772251
 21
1.122045639752577
 97
        0
 75
     0
 76
     1
 52
0.0
 41
1.0
 77
     0
 78
     1
 53
45.0
 43
0.0
 44
0.0
 45
-0.0883883476483184
 46
0.0883883476483185
 79
     0
 98
        1
 10
0.0
 20
0.0
  0
LINE
  5
AC0
330
1E
100
AcDbEntity
  8
0
  6
Continuous
100
AcDbLine
 10
19.12894387037987
 20
0.5070210222372005
 30
0.0
 11
19.20694389598359
 21
0.5070210222372005
 31
0.0
  0
LINE
  5
AC1
330
1E
100
AcDbEntity
  8
0
  6
Continuous
100
AcDbLine
 10
19.12894387037987
 20
1.122045624087185
 30
0.0
 11
19.20694389598359
 21
1.122045624087185
 31
0.0
  0
LINE
  5
AC2
330
1E
100
AcDbEntity
  8
0
  6
Continuous
100
AcDbLine
 10
19.20694389598359
 20
1.465996104075223
 30
0.0
 11
19.12894387037987
 21
1.465996104075223
 31
0.0
  0
LINE
  5
AC3
330
1E
100
AcDbEntity
  8
0
  6
Continuous
100
AcDbLine
 10
18.57794384557919
 20
1.451520857961167
 30
0.0
 11
18.57794384557919
 21
1.136520870201238
 31
0.0
  0
LINE
  5
AC4
330
1E
100
AcDbEntity
  8
0
  6
Continuous
100
AcDbLine
 10
19.12894387037987
 20
1.122045624087185
 30
0.0
 11
19.12894387037987
 21
1.465996104075223
 31
0.0
  0
SPLINE
  5
AC5
330
1E
100
AcDbEntity
  8
0
  6
Continuous
100
AcDbSpline
210
0.0
220
0.0
230
1.0
 70
    24
 71
     1
 72
     4
 73
     2
 74
     0
 42
0.0000000001
 43
0.0000000001
 40
0.0
 40
0.0
 40
1.0
 40
1.0
 10
18.57794384557919
 20
1.136520870201238
 30
0.0
 10
19.12894387037988
 20
1.136520870201238
 30
0.0
  0
LINE
  5
AC6
330
1E
100
AcDbEntity
  8
0
  6
Continuous
100
AcDbLine
 10
19.12894387037987
 20
0.5070210222372005
 30
0.0
 11
19.12894387037987
 21
1.122045624087185
 31
0.0
  0
SPLINE
  5
AC7
330
1E
100
AcDbEntity
  8
0
  6
Continuous
100
AcDbSpline
210
0.0
220
0.0
230
1.0
 70
    24
 71
     1
 72
     4
 73
     2
 74
     0
 42
0.0000000001
 43
0.0000000001
 40
0.0
 40
0.0
 40
1.0
 40
1.0
 10
19.12894387037988
 20
1.451520857961167
 30
0.0
 10
18.57794384557919
 20
1.451520857961167
 30
0.0
  0
LINE
  5
AC8
330
1E
100
AcDbEntity
  8
0
  6
Continuous
100
AcDbLine
 10
19.20694389598359
 20
1.122045624087185
 30
0.0
 11
19.20694389598359
 21
1.465996104075223
 31
0.0
  0
SPLINE
  5
AC9
330
1E
100
AcDbEntity
  8
0
  6
Continuous
100
AcDbSpline
210
0.0
220
0.0
230
1.0
 70
    24
 71
     1
 72
     4
 73
     2
 74
     0
 42
0.0000000001
 43
0.0000000001
 40
0.0
 40
0.0
 40
1.0
 40
1.0
 10
19.2069438959836
 20
1.014021005330132
 30
0.0
 10
19.58194387770181
 20
1.014021005330132
 30
0.0
  0
LINE
  5
ACA
330
1E
100
AcDbEntity
  8
0
  6
Continuous
100
AcDbLine
 10
19.20694389598359
 20
0.5070210222372005
 30
0.0
 11
19.20694389598359
 21
1.122045624087185
 31
0.0
  0
LINE
  5
ACB
330
1E
100
AcDbEntity
  8
0
  6
Continuous
100
AcDbLine
 10
19.72194387582655
 20
1.044021032100594
 30
0.0
 11
19.72194387582655
 21
0.9190208227803466
 31
0.0
  0
LINE
  5
ACC
330
1E
100
AcDbEntity
  8
0
  6
Continuous
100
AcDbLine
 10
19.64394387772252
 20
1.044021032100594
 30
0.0
 11
19.72194387582655
 21
1.044021032100594
 31
0.0
  0
SPLINE
  5
ACD
330
1E
100
AcDbEntity
  8
0
  6
Continuous
100
AcDbSpline
210
0.0
220
0.0
230
1.0
 70
    24
 71
     1
 72
     4
 73
     2
 74
     0
 42
0.0000000001
 43
0.0000000001
 40
0.0
 40
0.0
 40
1.0
 40
1.0
 10
19.58194387770181
 20
1.57402101616222
 30
0.0
 10
19.2069438959836
 20
1.57402101616222
 30
0.0
  0
LINE
  5
ACE
330
1E
100
AcDbEntity
  8
0
  6
Continuous
100
AcDbLine
 10
20.01594388701334
 20
-0.2995791265157201
 30
0.0
 11
20.01594388701334
 21
-1.315979118309613
 31
0.0
  0
LINE
  5
ACF
330
1E
100
AcDbEntity
  8
0
  6
Continuous
100
AcDbLine
 10
20.09394387595081
 20
-0.2995791265157201
 30
0.0
 11
20.09394387595081
 21
-1.315979118309613
 31
0.0
  0
LINE
  5
AD0
330
1E
100
AcDbEntity
  8
0
  6
Continuous
100
AcDbLine
 10
20.09394387595081
 20
-1.315979118309613
 30
0.0
 11
20.09394387595081
 21
-1.440979327629861
 31
0.0
  0
LINE
  5
AD1
330
1E
100
AcDbEntity
  8
0
  6
Continuous
100
AcDbLine
 10
20.01594388701334
 20
-1.440979327629861
 30
0.0
 11
20.01594388701334
 21
-1.315979118309613
 31
0.0
  0
LINE
  5
AD2
330
1E
100
AcDbEntity
  8
0
  6
Continuous
100
AcDbLine
 10
20.09394387595081
 20
-1.440979327629861
 30
0.0
 11
20.01594388701334
 21
-1.440979327629861
 31
0.0
  0
ARC
  5
AD3
330
1E
100
AcDbEntity
  8
0
  6
Continuous
100
AcDbCircle
 10
20.00034387772252
 20
-0.2995790928534561
 30
0.0
 40
0.0936000000000057
100
AcDbArc
 50
0.0000000000002036
 51
90.0
  0
ARC
  5
AD4
330
1E
100
AcDbEntity
  8
0
  6
Continuous
100
AcDbCircle
 10
20.00034387772252
 20
-0.2995790928534561
 30
0.0
 40
0.0156000000000027
100
AcDbArc
 50
0.0
 51
90.0
  0
LINE
  5
AD5
330
1E
100
AcDbEntity
  8
0
  6
Continuous
100
AcDbLine
 10
19.56694387806641
 20
9.684021115415688
 30
0.0
 11
13.83894368424677
 21
9.684021115415688
 31
0.0
  0
LINE
  5
AD6
330
1E
100
AcDbEntity
  8
0
  6
Continuous
100
AcDbLine
 10
19.56694387806641
 20
9.622020844981435
 30
0.0
 11
13.83894368424677
 21
9.622020844981435
 31
0.0
  0
LINE
  5
AD7
330
1E
100
AcDbEntity
  8
0
  6
Continuous
100
AcDbLine
 10
7.743235291216038
 20
9.784020813543975
 30
0.0
 11
7.743235291216038
 21
10.79402093260307
 31
0.0
  0
LINE
  5
AD8
330
1E
100
AcDbEntity
  8
0
  6
Continuous
100
AcDbLine
 10
8.743235205798356
 20
9.784020813543975
 30
0.0
 11
8.743235205798356
 21
10.79402093260307
 31
0.0
  0
CIRCLE
  5
AD9
330
1E
100
AcDbEntity
  8
0
  6
Continuous
100
AcDbCircle
 10
8.250235317366993
 20
8.941020907146736
 30
0.0
 40
0.2499999999999982
  0
CIRCLE
  5
ADA
330
1E
100
AcDbEntity
  8
0
  6
Continuous
100
AcDbCircle
 10
8.250235317366993
 20
8.941020907146736
 30
0.0
 40
0.1792913385826763
  0
CIRCLE
  5
ADB
330
1E
100
AcDbEntity
  8
0
  6
Continuous
100
AcDbCircle
 10
8.250235317366993
 20
8.941020907146736
 30
0.0
 40
0.2071135629907571
  0
CIRCLE
  5
ADC
330
1E
100
AcDbEntity
  8
0
  6
Continuous
100
AcDbCircle
 10
8.250235317366993
 20
8.941020907146736
 30
0.0
 40
0.209999999999998
  0
ARC
  5
ADD
330
1E
100
AcDbEntity
  8
0
  6
Continuous
100
AcDbCircle
 10
8.243235317366988
 20
10.1490209071469
 30
0.0
 40
0.2185000000000006
100
AcDbArc
 50
180.0
 51
0.0
  0
ARC
  5
ADE
330
1E
100
AcDbEntity
  8
0
  6
Continuous
100
AcDbCircle
 10
8.243235317366988
 20
10.3990209071469
 30
0.0
 40
0.2185000000000006
100
AcDbArc
 50
0.0
 51
180.0
  0
LINE
  5
ADF
330
1E
100
AcDbEntity
  8
0
  6
Continuous
100
AcDbLine
 10
8.024735239304614
 20
10.39902106900854
 30
0.0
 11
8.024735239304614
 21
10.14902065036804
 31
0.0
  0
LINE
  5
AE0
330
1E
100
AcDbEntity
  8
0
  6
Continuous
100
AcDbLine
 10
8.160295619966198
 20
8.929268207719015
 30
0.0
 11
8.171441277877271
 21
8.896090244327012
 31
0.0
  0
LINE
  5
AE1
330
1E
100
AcDbEntity
  8
0
  6
Continuous
100
AcDbLine
 10
8.171441277877271
 20
8.896090244327012
 30
0.0
 11
8.239219268233476
 21
8.918859101299233
 31
0.0
  0
LINE
  5
AE2
330
1E
100
AcDbEntity
  8
0
  6
Continuous
100
AcDbLine
 10
8.239219268233476
 20
8.918859101299233
 30
0.0
 11
8.261988125205697
 21
8.851081404272974
 31
0.0
  0
LINE
  5
AE3
330
1E
100
AcDbEntity
  8
0
  6
Continuous
100
AcDbLine
 10
8.295166088597703
 20
8.862227062184047
 30
0.0
 11
8.272397231625479
 21
8.930004759210309
 31
0.0
  0
LINE
  5
AE4
330
1E
100
AcDbEntity
  8
0
  6
Continuous
100
AcDbLine
 10
8.261988125205697
 20
8.851081404272974
 30
0.0
 11
8.295166088597703
 21
8.862227062184047
 31
0.0
  0
LINE
  5
AE5
330
1E
100
AcDbEntity
  8
0
  6
Continuous
100
AcDbLine
 10
8.272397231625479
 20
8.930004759210309
 30
0.0
 11
8.340174928651741
 21
8.952773616182533
 31
0.0
  0
LINE
  5
AE6
330
1E
100
AcDbEntity
  8
0
  6
Continuous
100
AcDbLine
 10
8.329029270740662
 20
8.985951579574532
 30
0.0
 11
8.261251573714403
 21
8.963182722602311
 31
0.0
  0
LINE
  5
AE7
330
1E
100
AcDbEntity
  8
0
  6
Continuous
100
AcDbLine
 10
8.228073610322404
 20
8.952037064691236
 30
0.0
 11
8.160295619966198
 21
8.929268207719015
 31
0.0
  0
LINE
  5
AE8
330
1E
100
AcDbEntity
  8
0
  6
Continuous
100
AcDbLine
 10
8.238482716742183
 20
9.03096041962857
 30
0.0
 11
8.20530475335018
 21
9.019814761717498
 31
0.0
  0
LINE
  5
AE9
330
1E
100
AcDbEntity
  8
0
  6
Continuous
100
AcDbLine
 10
8.20530475335018
 20
9.019814761717498
 30
0.0
 11
8.228073610322404
 21
8.952037064691236
 31
0.0
  0
LINE
  5
AEA
330
1E
100
AcDbEntity
  8
0
  6
Continuous
100
AcDbLine
 10
8.261251573714403
 20
8.963182722602311
 30
0.0
 11
8.238482716742183
 21
9.03096041962857
 31
0.0
  0
LINE
  5
AEB
330
1E
100
AcDbEntity
  8
0
  6
Continuous
100
AcDbLine
 10
8.340174928651741
 20
8.952773616182533
 30
0.0
 11
8.329029270740662
 21
8.985951579574532
 31
0.0
  0
LINE
  5
AEC
330
1E
100
AcDbEntity
  8
0
  6
Continuous
100
AcDbLine
 10
8.461735257709779
 20
10.14902065036804
 30
0.0
 11
8.461735257709779
 21
10.39902106900854
 31
0.0
  0
ARC
  5
AED
330
1E
100
AcDbEntity
  8
0
  6
Continuous
100
AcDbCircle
 10
9.016235317366991
 20
9.707020907146734
 30
0.0
 40
0.077
100
AcDbArc
 50
0.0
 51
89.99999999999868
  0
LINE
  5
AEE
330
1E
100
AcDbEntity
  8
0
  6
Continuous
100
AcDbLine
 10
8.618235289808055
 20
10.91902114192332
 30
0.0
 11
7.868235207206339
 21
10.91902114192332
 31
0.0
  0
ARC
  5
AEF
330
1E
100
AcDbEntity
  8
0
  6
Continuous
100
AcDbCircle
 10
7.868235317366984
 20
10.7940209071469
 30
0.0
 40
0.1250000000000018
100
AcDbArc
 50
90.0
 51
180.0
  0
ARC
  5
AF0
330
1E
100
AcDbEntity
  8
0
  6
Continuous
100
AcDbCircle
 10
8.618235317366984
 20
10.7940209071469
 30
0.0
 40
0.1250000000000018
100
AcDbArc
 50
0.0
 51
90.0
  0
LINE
  5
AF1
330
1E
100
AcDbEntity
  8
0
  6
Continuous
100
AcDbLine
 10
14.16194395292012
 20
7.860021013087184
 30
0.0
 11
14.71194405260537
 21
7.860021013087184
 31
0.0
  0
LINE
  5
AF2
330
1E
100
AcDbEntity
  8
0
  6
Continuous
100
AcDbLine
 10
14.16194395292012
 20
8.760020936211269
 30
0.0
 11
14.71194405260537
 21
8.760020936211269
 31
0.0
  0
LINE
  5
AF3
330
1E
100
AcDbEntity
  8
0
  6
Continuous
100
AcDbLine
 10
14.16194395292011
 20
9.560020867877128
 30
0.0
 11
14.71194405260536
 21
9.560020867877128
 31
0.0
  0
LINE
  5
AF4
330
1E
100
AcDbEntity
  8
0
  6
Continuous
100
AcDbLine
 10
13.80094396322279
 20
9.722020836439668
 30
0.0
 11
13.80094396322279
 21
9.222020879148505
 31
0.0
  0
LINE
  5
AF5
330
1E
100
AcDbEntity
  8
0
  6
Continuous
100
AcDbLine
 10
14.0509437952034
 20
9.722020836439668
 30
0.0
 11
14.0509437952034
 21
9.222020879148505
 31
0.0
  0
HATCH
  5
AF6
330
1E
100
AcDbEntity
  8
0
  6
Continuous
100
AcDbHatch
 10
0.0
 20
0.0
 30
0.0
210
0.0
220
0.0
230
1.0
  2
ANSI31
 70
     0
 71
     0
 91
        1
 92
        0
 93
        4
 72
     1
 10
14.05094387772251
 20
9.222020907146738
 11
14.05094387772251
 21
9.722020907146742
 72
     1
 10
14.05094387772251
 20
9.722020907146742
 11
13.80094387772251
 21
9.722020907146742
 72
     1
 10
13.80094387772251
 20
9.722020907146742
 11
13.80094387772251
 21
9.222020907146738
 72
     1
 10
13.80094387772251
 20
9.222020907146735
 11
14.05094387772251
 21
9.222020907146735
 97
        0
 75
     0
 76
     1
 52
0.0
 41
1.0
 77
     0
 78
     1
 53
45.0
 43
0.0
 44
0.0
 45
-0.0883883476483184
 46
0.0883883476483185
 79
     0
 98
        1
 10
0.0
 20
0.0
  0
LINE
  5
AF7
330
1E
100
AcDbEntity
  8
0
  6
Continuous
100
AcDbLine
 10
14.07394379617211
 20
8.01002085360956
 30
0.0
 11
14.0739437961721
 21
9.472021004459058
 31
0.0
  0
SPLINE
  5
AF8
330
1E
100
AcDbEntity
  8
0
  6
Continuous
100
AcDbSpline
210
0.0
220
0.0
230
1.0
 70
    24
 71
     1
 72
     4
 73
     2
 74
     0
 42
0.0000000001
 43
0.0000000001
 40
0.0
 40
0.0
 40
1.0
 40
1.0
 10
13.8009439632228
 20
8.843020990720894
 30
0.0
 10
14.0119438190678
 20
8.843020990720894
 30
0.0
  0
SPLINE
  5
AF9
330
1E
100
AcDbEntity
  8
0
  6
Continuous
100
AcDbSpline
210
0.0
220
0.0
230
1.0
 70
    24
 71
     1
 72
     4
 73
     2
 74
     0
 42
0.0000000001
 43
0.0000000001
 40
0.0
 40
0.0
 40
1.0
 40
1.0
 10
14.0119438190678
 20
9.039020833180654
 30
0.0
 10
13.8009439632228
 20
9.039020833180654
 30
0.0
  0
LINE
  5
AFA
330
1E
100
AcDbEntity
  8
0
  6
Continuous
100
AcDbLine
 10
14.0509437952034
 20
9.222020879148505
 30
0.0
 11
13.80094396322279
 21
9.222020879148505
 31
0.0
  0
SPLINE
  5
AFB
330
1E
100
AcDbEntity
  8
0
  6
Continuous
100
AcDbSpline
210
0.0
220
0.0
230
1.0
 70
    24
 71
     1
 72
     4
 73
     2
 74
     0
 42
0.0000000001
 43
0.0000000001
 40
0.0
 40
0.0
 40
1.0
 40
1.0
 10
13.63595173589376
 20
8.733907237878945
 30
0.0
 10
13.66894372810078
 20
8.731020871222497
 30
0.0
  0
SPLINE
  5
AFC
330
1E
100
AcDbEntity
  8
0
  6
Continuous
100
AcDbSpline
210
0.0
220
0.0
230
1.0
 70
    24
 71
     1
 72
     4
 73
     2
 74
     0
 42
0.0000000001
 43
0.0000000001
 40
0.0
 40
0.0
 40
1.0
 40
1.0
 10
13.66894372810078
 20
9.151020952679047
 30
0.0
 10
13.63595173589376
 20
9.148134586022603
 30
0.0
  0
LINE
  5
AFD
330
1E
100
AcDbEntity
  8
0
  6
Continuous
100
AcDbLine
 10
13.63595173589376
 20
8.744689459988457
 30
0.0
 11
13.63595173589376
 21
9.148134586022603
 31
0.0
  0
LINE
  5
AFE
330
1E
100
AcDbEntity
  8
0
  6
Continuous
100
AcDbLine
 10
13.55295989462259
 20
8.840469606861361
 30
0.0
 11
13.55295989462259
 21
9.041572217040183
 31
0.0
  0
ARC
  5
AFF
330
1E
100
AcDbEntity
  8
0
  6
Continuous
100
AcDbCircle
 10
13.63169978323434
 20
8.840469726044378
 30
0.0
 40
0.0787401574803148
100
AcDbArc
 50
179.9999999999996
 51
270.0000000000008
  0
SPLINE
  5
B00
330
1E
100
AcDbEntity
  8
0
  6
Continuous
100
AcDbSpline
210
0.0
220
0.0
230
1.0
 70
    24
 71
     1
 72
     4
 73
     2
 74
     0
 42
0.0000000001
 43
0.0000000001
 40
0.0
 40
0.0
 40
1.0
 40
1.0
 10
13.63169962501451
 20
8.761729583139505
 30
0.0
 10
13.63595173589376
 20
8.761729583139505
 30
0.0
  0
LINE
  5
B01
330
1E
100
AcDbEntity
  8
0
  6
Continuous
100
AcDbLine
 10
13.63595173589376
 20
8.733907237878945
 30
0.0
 11
13.63595173589376
 21
8.744689459988457
 31
0.0
  0
ARC
  5
B02
330
1E
100
AcDbEntity
  8
0
  6
Continuous
100
AcDbCircle
 10
13.63169978323434
 20
9.041572088249104
 30
0.0
 40
0.0787401574803148
100
AcDbArc
 50
90.0
 51
179.9999999999996
  0
SPLINE
  5
B03
330
1E
100
AcDbEntity
  8
0
  6
Continuous
100
AcDbSpline
210
0.0
220
0.0
230
1.0
 70
    24
 71
     1
 72
     4
 73
     2
 74
     0
 42
0.0000000001
 43
0.0000000001
 40
0.0
 40
0.0
 40
1.0
 40
1.0
 10
13.63595173589376
 20
9.120312240762043
 30
0.0
 10
13.63169962501451
 20
9.120312240762043
 30
0.0
  0
LINE
  5
B04
330
1E
100
AcDbEntity
  8
0
  6
Continuous
100
AcDbLine
 10
13.66894372810078
 20
8.706020946690422
 30
0.0
 11
13.66894372810078
 21
9.176020877211122
 31
0.0
  0
SPLINE
  5
B05
330
1E
100
AcDbEntity
  8
0
  6
Continuous
100
AcDbSpline
210
0.0
220
0.0
230
1.0
 70
    24
 71
     1
 72
     4
 73
     2
 74
     0
 42
0.0000000001
 43
0.0000000001
 40
0.0
 40
0.0
 40
1.0
 40
1.0
 10
13.68394403481596
 20
8.691020933305193
 30
0.0
 10
13.72394367940332
 20
8.691020933305193
 30
0.0
  0
ARC
  5
B06
330
1E
100
AcDbEntity
  8
0
  6
Continuous
100
AcDbCircle
 10
13.68394387772253
 20
8.706020907146744
 30
0.0
 40
0.0149999999999988
100
AcDbArc
 50
180.0
 51
270.0000000000008
  0
ARC
  5
B07
330
1E
100
AcDbEntity
  8
0
  6
Continuous
100
AcDbCircle
 10
13.72394387772253
 20
8.706020907146744
 30
0.0
 40
0.0150000000000006
100
AcDbArc
 50
270.0000000000008
 51
0.0
  0
SPLINE
  5
B08
330
1E
100
AcDbEntity
  8
0
  6
Continuous
100
AcDbSpline
210
0.0
220
0.0
230
1.0
 70
    24
 71
     1
 72
     4
 73
     2
 74
     0
 42
0.0000000001
 43
0.0000000001
 40
0.0
 40
0.0
 40
1.0
 40
1.0
 10
13.72394367940332
 20
9.191020890596352
 30
0.0
 10
13.68394403481596
 20
9.191020890596352
 30
0.0
  0
ARC
  5
B09
330
1E
100
AcDbEntity
  8
0
  6
Continuous
100
AcDbCircle
 10
13.68394387772253
 20
9.176020907146742
 30
0.0
 40
0.0150000000000006
100
AcDbArc
 50
90.0
 51
180.0
  0
ARC
  5
B0A
330
1E
100
AcDbEntity
  8
0
  6
Continuous
100
AcDbCircle
 10
13.72394387772253
 20
9.176020907146742
 30
0.0
 40
0.0150000000000006
100
AcDbArc
 50
0.0
 51
90.0
  0
LINE
  5
B0B
330
1E
100
AcDbEntity
  8
0
  6
Continuous
100
AcDbLine
 10
14.0119438190678
 20
8.235020761058095
 30
0.0
 11
14.0119438190678
 21
9.222020879148505
 31
0.0
  0
ELLIPSE
  5
B0C
330
1E
100
AcDbEntity
  8
0
  6
Continuous
100
AcDbEllipse
 10
14.16194387772251
 20
8.010020907146497
 30
0.0
 11
0.0
 21
0.1500000000000003
 31
0.0
210
0.0
220
0.0
230
1.0
 40
0.5866666666666717
 41
1.570796326794896
 42
3.141592653589793
  0
ARC
  5
B0D
330
1E
100
AcDbEntity
  8
0
  6
Continuous
100
AcDbCircle
 10
14.16194387772251
 20
8.010020907146497
 30
0.0
 40
0.1500000000000003
100
AcDbArc
 50
222.2685844295705
 51
270.0000000000001
  0
LINE
  5
B0E
330
1E
100
AcDbEntity
  8
0
  6
Continuous
100
AcDbLine
 10
14.07394379617211
 20
8.01002085360956
 30
0.0
 11
14.05094379520341
 21
8.01002085360956
 31
0.0
  0
SPLINE
  5
B0F
330
1E
100
AcDbEntity
  8
0
  6
Continuous
100
AcDbSpline
210
0.0
220
0.0
230
1.0
 70
    24
 71
     1
 72
     4
 73
     2
 74
     0
 42
0.0000000001
 43
0.0000000001
 40
0.0
 40
0.0
 40
1.0
 40
1.0
 10
14.12111418458908
 20
8.843020990720894
 30
0.0
 10
14.39697515781958
 20
8.843020990720894
 30
0.0
  0
SPLINE
  5
B10
330
1E
100
AcDbEntity
  8
0
  6
Continuous
100
AcDbSpline
210
0.0
220
0.0
230
1.0
 70
    24
 71
     1
 72
     4
 73
     2
 74
     0
 42
0.0000000001
 43
0.0000000001
 40
0.0
 40
0.0
 40
1.0
 40
1.0
 10
14.39697515781958
 20
9.039020833180654
 30
0.0
 10
14.16350329490646
 20
9.039020833180654
 30
0.0
  0
ARC
  5
B11
330
1E
100
AcDbEntity
  8
0
  6
Continuous
100
AcDbCircle
 10
14.14101389551759
 20
8.778520907146496
 30
0.0
 40
0.0675000000000038
100
AcDbArc
 50
107.1462099981906
 51
173.5294410739389
  0
ARC
  5
B12
330
1E
100
AcDbEntity
  8
0
  6
Continuous
100
AcDbCircle
 10
14.14101389551759
 20
9.1535209071465
 30
0.0
 40
0.0675000000000026
100
AcDbArc
 50
186.4705589260529
 51
270.0000000000008
  0
ELLIPSE
  5
B13
330
1E
100
AcDbEntity
  8
0
  6
Continuous
100
AcDbEllipse
 10
14.16194387772251
 20
8.910020907146495
 30
0.0
 11
0.0
 21
0.1500000000000021
 31
0.0
210
0.0
220
0.0
230
1.0
 40
0.5866666666666529
 41
2.189537392374061
 42
3.141592653589793
  0
LINE
  5
B14
330
1E
100
AcDbEntity
  8
0
  6
Continuous
100
AcDbLine
 10
14.16350329490646
 20
8.857600955625226
 30
0.0
 11
14.16350329490646
 21
9.086020796899727
 31
0.0
  0
SPLINE
  5
B15
330
1E
100
AcDbEntity
  8
0
  6
Continuous
100
AcDbSpline
210
0.0
220
0.0
230
1.0
 70
    24
 71
     1
 72
     4
 73
     2
 74
     0
 42
0.0000000001
 43
0.0000000001
 40
0.0
 40
0.0
 40
1.0
 40
1.0
 10
14.16350329490646
 20
9.086020796899727
 30
0.0
 10
14.14101368804166
 20
9.086020796899727
 30
0.0
  0
LINE
  5
B16
330
1E
100
AcDbEntity
  8
0
  6
Continuous
100
AcDbLine
 10
14.39697515781958
 20
8.843020990720894
 30
0.0
 11
14.39697515781958
 21
9.039020833180654
 31
0.0
  0
LINE
  5
B17
330
1E
100
AcDbEntity
  8
0
  6
Continuous
100
AcDbLine
 10
14.41697556677315
 20
9.019021010886973
 30
0.0
 11
14.41697556677315
 21
8.867081379439895
 31
0.0
  0
SPLINE
  5
B18
330
1E
100
AcDbEntity
  8
0
  6
Continuous
100
AcDbSpline
210
0.0
220
0.0
230
1.0
 70
    24
 71
     1
 72
     4
 73
     2
 74
     0
 42
0.0000000001
 43
0.0000000001
 40
0.0
 40
0.0
 40
1.0
 40
1.0
 10
14.39697515781958
 20
8.843020990720894
 30
0.0
 10
14.41697556677315
 20
8.863020813014571
 30
0.0
  0
LINE
  5
B19
330
1E
100
AcDbEntity
  8
0
  6
Continuous
100
AcDbLine
 10
14.41697556677315
 20
8.867081379439895
 30
0.0
 11
14.41697556677315
 21
8.863020813014571
 31
0.0
  0
SPLINE
  5
B1A
330
1E
100
AcDbEntity
  8
0
  6
Continuous
100
AcDbSpline
210
0.0
220
0.0
230
1.0
 70
    24
 71
     1
 72
     4
 73
     2
 74
     0
 42
0.0000000001
 43
0.0000000001
 40
0.0
 40
0.0
 40
1.0
 40
1.0
 10
14.41697556677315
 20
9.019021010886973
 30
0.0
 10
14.39697515781958
 20
9.039020833180654
 30
0.0
  0
LINE
  5
B1B
330
1E
100
AcDbEntity
  8
0
  6
Continuous
100
AcDbLine
 10
14.42894401517927
 20
9.722020836439668
 30
0.0
 11
13.81594368327808
 21
9.722020836439668
 31
0.0
  0
LINE
  5
B1C
330
1E
100
AcDbEntity
  8
0
  6
Continuous
100
AcDbLine
 10
14.42894401517927
 20
9.784020813543975
 30
0.0
 11
13.81594368327808
 21
9.784020813543975
 31
0.0
  0
LINE
  5
B1D
330
1E
100
AcDbEntity
  8
0
  6
Continuous
100
AcDbLine
 10
13.80094396322279
 20
9.722020836439668
 30
0.0
 11
14.0509437952034
 21
9.722020836439668
 31
0.0
  0
LINE
  5
B1E
330
1E
100
AcDbEntity
  8
0
  6
Continuous
100
AcDbLine
 10
13.76194398708717
 20
9.359020923178974
 30
0.0
 11
13.76194398708717
 21
9.607020831596202
 31
0.0
  0
LINE
  5
B1F
330
1E
100
AcDbEntity
  8
0
  6
Continuous
100
AcDbLine
 10
13.82394396419148
 20
9.607020831596202
 30
0.0
 11
13.82394396419148
 21
9.359020923178974
 31
0.0
  0
LINE
  5
B20
330
1E
100
AcDbEntity
  8
0
  6
Continuous
100
AcDbLine
 10
13.82394396419148
 20
9.359020923178974
 30
0.0
 11
13.76194398708717
 21
9.359020923178974
 31
0.0
  0
ARC
  5
B21
330
1E
100
AcDbEntity
  8
0
  6
Continuous
100
AcDbCircle
 10
13.81594387772251
 20
9.707020907146734
 30
0.0
 40
0.077
100
AcDbArc
 50
90.0
 51
179.9999999999973
  0
ARC
  5
B22
330
1E
100
AcDbEntity
  8
0
  6
Continuous
100
AcDbCircle
 10
13.83894387772279
 20
9.607020907146498
 30
0.0
 40
0.0770000040634606
100
AcDbArc
 50
90.0
 51
180.0000000000022
  0
ARC
  5
B23
330
1E
100
AcDbEntity
  8
0
  6
Continuous
100
AcDbCircle
 10
13.81594387772251
 20
9.707020907146734
 30
0.0
 40
0.0150000000000006
100
AcDbArc
 50
90.00000000000682
 51
179.9999999999933
  0
ARC
  5
B24
330
1E
100
AcDbEntity
  8
0
  6
Continuous
100
AcDbCircle
 10
13.83894387772279
 20
9.607020907146498
 30
0.0
 40
0.0150000000001498
100
AcDbArc
 50
90.0
 51
180.0000000000075
  0
ARC
  5
B25
330
1E
100
AcDbEntity
  8
0
  6
Continuous
100
AcDbCircle
 10
14.16194387772251
 20
9.472020907146497
 30
0.0
 40
0.088000000000001
100
AcDbArc
 50
90.0
 51
180.0
  0
LINE
  5
B26
330
1E
100
AcDbEntity
  8
0
  6
Continuous
100
AcDbLine
 10
14.0739437961721
 20
9.472021004459058
 30
0.0
 11
14.05094379520341
 21
9.472021004459058
 31
0.0
  0
ARC
  5
B27
330
1E
100
AcDbEntity
  8
0
  6
Continuous
100
AcDbCircle
 10
14.16194387772251
 20
9.472020907146497
 30
0.0
 40
0.1499999999999989
100
AcDbArc
 50
90.0
 51
137.7314155704264
  0
LINE
  5
B28
330
1E
100
AcDbEntity
  8
0
  6
Continuous
100
AcDbLine
 10
14.42894401517927
 20
9.722020836439668
 30
0.0
 11
14.42894401517927
 21
9.784020813543975
 31
0.0
  0
LINE
  5
B29
330
1E
100
AcDbEntity
  8
0
  6
Continuous
100
AcDbLine
 10
14.42894401517928
 20
9.722020836439668
 30
0.0
 11
14.42894401517928
 21
9.707021116384378
 31
0.0
  0
LINE
  5
B2A
330
1E
100
AcDbEntity
  8
0
  6
Continuous
100
AcDbLine
 10
14.42894401517928
 20
9.707021116384378
 30
0.0
 11
14.42894401517928
 21
9.684021115415688
 31
0.0
  0
SPLINE
  5
B2B
330
1E
100
AcDbEntity
  8
0
  6
Continuous
100
AcDbSpline
210
0.0
220
0.0
230
1.0
 70
    24
 71
     1
 72
     4
 73
     2
 74
     0
 42
0.0000000001
 43
0.0000000001
 40
0.0
 40
0.0
 40
1.0
 40
1.0
 10
15.08094373655619
 20
9.58202090706413
 30
0.0
 10
15.08094373655619
 20
8.993020831243267
 30
0.0
  0
SPLINE
  5
B2C
330
1E
100
AcDbEntity
  8
0
  6
Continuous
100
AcDbSpline
210
0.0
220
0.0
230
1.0
 70
    24
 71
     1
 72
     4
 73
     2
 74
     0
 42
0.0000000001
 43
0.0000000001
 40
0.0
 40
0.0
 40
1.0
 40
1.0
 10
15.3169438102632
 20
8.993020831243267
 30
0.0
 10
15.3169438102632
 20
9.58202090706413
 30
0.0
  0
LINE
  5
B2D
330
1E
100
AcDbEntity
  8
0
  6
Continuous
100
AcDbLine
 10
15.08094373655619
 20
8.993020831243267
 30
0.0
 11
15.3169438102632
 21
8.993020831243267
 31
0.0
  0
LINE
  5
B2E
330
1E
100
AcDbEntity
  8
0
  6
Continuous
100
AcDbLine
 10
14.81194375073366
 20
8.660020944753039
 30
0.0
 11
14.81194375073366
 21
7.960021004545414
 31
0.0
  0
ARC
  5
B2F
330
1E
100
AcDbEntity
  8
0
  6
Continuous
100
AcDbCircle
 10
14.71194387772252
 20
7.960020907146493
 30
0.0
 40
0.0999999999999997
100
AcDbArc
 50
270.0000000000008
 51
0.0000000000008142
  0
ARC
  5
B30
330
1E
100
AcDbEntity
  8
0
  6
Continuous
100
AcDbCircle
 10
14.71194387772252
 20
8.660020907146495
 30
0.0
 40
0.0999999999999997
100
AcDbArc
 50
0.0
 51
90.0
  0
LINE
  5
B31
330
1E
100
AcDbEntity
  8
0
  6
Continuous
100
AcDbLine
 10
15.05494385024243
 20
9.58202090706413
 30
0.0
 11
15.34294398990691
 21
9.58202090706413
 31
0.0
  0
LINE
  5
B32
330
1E
100
AcDbEntity
  8
0
  6
Continuous
100
AcDbLine
 10
14.81194375073365
 20
9.622020844981435
 30
0.0
 11
14.81194375073365
 21
9.560020867877128
 31
0.0
  0
LINE
  5
B33
330
1E
100
AcDbEntity
  8
0
  6
Continuous
100
AcDbLine
 10
14.81194375073365
 20
9.560020867877128
 30
0.0
 11
14.71194405260536
 21
9.560020867877128
 31
0.0
  0
SPLINE
  5
B34
330
1E
100
AcDbEntity
  8
0
  6
Continuous
100
AcDbSpline
210
0.0
220
0.0
230
1.0
 70
    24
 71
     1
 72
     4
 73
     2
 74
     0
 42
0.0000000001
 43
0.0000000001
 40
0.0
 40
0.0
 40
1.0
 40
1.0
 10
15.05494385024243
 20
9.622020844981435
 30
0.0
 10
15.05494385024243
 20
9.58202090706413
 30
0.0
  0
SPLINE
  5
B35
330
1E
100
AcDbEntity
  8
0
  6
Continuous
100
AcDbSpline
210
0.0
220
0.0
230
1.0
 70
    24
 71
     1
 72
     4
 73
     2
 74
     0
 42
0.0000000001
 43
0.0000000001
 40
0.0
 40
0.0
 40
1.0
 40
1.0
 10
15.34294398990691
 20
9.58202090706413
 30
0.0
 10
15.34294398990691
 20
9.622020844981435
 30
0.0
  0
LINE
  5
B36
330
1E
100
AcDbEntity
  8
0
  6
HIDDEN
100
AcDbLine
 10
8.90623542947253
 20
20.15574748697699
 30
0.0
 11
8.90623542947253
 21
14.41274757310206
 31
0.0
  0
SPLINE
  5
B37
330
1E
100
AcDbEntity
  8
0
  6
HIDDEN
100
AcDbSpline
210
0.0
220
0.0
230
1.0
 70
    24
 71
     1
 72
     4
 73
     2
 74
     0
 42
0.0000000001
 43
0.0000000001
 40
0.0
 40
0.0
 40
1.0
 40
1.0
 10
7.334735356908801
 20
19.79574750489418
 30
0.0
 10
7.334735356908801
 20
19.16674745448976
 30
0.0
  0
SPLINE
  5
B38
330
1E
100
AcDbEntity
  8
0
  6
HIDDEN
100
AcDbSpline
210
0.0
220
0.0
230
1.0
 70
    24
 71
     1
 72
     4
 73
     2
 74
     0
 42
0.0000000001
 43
0.0000000001
 40
0.0
 40
0.0
 40
1.0
 40
1.0
 10
7.64973519800376
 20
19.16674745448976
 30
0.0
 10
7.64973519800376
 20
19.79574750489418
 30
0.0
  0
LINE
  5
B39
330
1E
100
AcDbEntity
  8
0
  6
Continuous
100
AcDbLine
 10
8.968235406576837
 20
20.15574748697699
 30
0.0
 11
8.968235406576837
 21
15.01774762408984
 31
0.0
  0
ARC
  5
B3A
330
1E
100
AcDbEntity
  8
0
  6
Continuous
100
AcDbCircle
 10
8.149684136264632
 20
14.22050339214491
 30
0.0
 40
0.0787401574803148
100
AcDbArc
 50
180.0
 51
270.0000000000008
  0
LINE
  5
B3B
330
1E
100
AcDbEntity
  8
0
  6
Continuous
100
AcDbLine
 10
8.485235386234286
 20
14.25774733701135
 30
0.0
 11
8.015235455713593
 21
14.25774733701135
 31
0.0
  0
LINE
  5
B3C
330
1E
100
AcDbEntity
  8
0
  6
Continuous
100
AcDbLine
 10
8.457348801715824
 20
14.22475534480433
 30
0.0
 11
8.043121746902109
 21
14.22475534480433
 31
0.0
  0
LINE
  5
B3D
330
1E
100
AcDbEntity
  8
0
  6
HIDDEN
100
AcDbLine
 10
8.357613980527659
 20
14.63274737831221
 30
0.0
 11
8.075235215924578
 21
14.63274737831221
 31
0.0
  0
LINE
  5
B3E
330
1E
100
AcDbEntity
  8
0
  6
HIDDEN
100
AcDbLine
 10
8.357613980527659
 20
14.65774730284428
 30
0.0
 11
8.075235215924578
 21
14.65774730284428
 31
0.0
  0
LINE
  5
B3F
330
1E
100
AcDbEntity
  8
0
  6
HIDDEN
100
AcDbLine
 10
8.194235361224741
 20
14.60074742797836
 30
0.0
 11
7.294235291435683
 21
14.60074742797836
 31
0.0
  0
ARC
  5
B40
330
1E
100
AcDbEntity
  8
0
  6
HIDDEN
100
AcDbCircle
 10
8.194235317367002
 20
14.75074748663304
 30
0.0
 40
0.1500000000000021
100
AcDbArc
 50
180.0
 51
270.0000000000008
  0
ELLIPSE
  5
B41
330
1E
100
AcDbEntity
  8
0
  6
HIDDEN
100
AcDbEllipse
 10
8.194235317367002
 20
14.75074748663304
 30
0.0
 11
0.1500000000000003
 21
0.0000000000000018
 31
0.0
210
0.0
220
0.0
230
1.0
 40
0.5866666666666599
 41
3.141592653589773
 42
4.712388980384691
  0
LINE
  5
B42
330
1E
100
AcDbEntity
  8
0
  6
HIDDEN
100
AcDbLine
 10
8.194235361224741
 20
14.66274740508267
 30
0.0
 11
7.294235291435683
 21
14.66274740508267
 31
0.0
  0
LINE
  5
B43
330
1E
100
AcDbEntity
  8
0
  6
HIDDEN
100
AcDbLine
 10
8.437735294959395
 20
14.66231738338365
 30
0.0
 11
8.062735253658541
 21
14.66231738338365
 31
0.0
  0
ARC
  5
B44
330
1E
100
AcDbEntity
  8
0
  6
HIDDEN
100
AcDbCircle
 10
8.062735317367007
 20
14.71024748663305
 30
0.0
 40
0.1095000000000006
100
AcDbArc
 50
270.0000000000008
 51
0.0
  0
ARC
  5
B45
330
1E
100
AcDbEntity
  8
0
  6
HIDDEN
100
AcDbCircle
 10
8.062735317367007
 20
14.72981750442812
 30
0.0
 40
0.0675000000000008
100
AcDbArc
 50
270.0000000000008
 51
0.0000000000014249
  0
LINE
  5
B46
330
1E
100
AcDbEntity
  8
0
  6
HIDDEN
100
AcDbLine
 10
7.144235304248333
 20
14.75074756183068
 30
0.0
 11
7.144235304248333
 21
15.30074766151593
 31
0.0
  0
LINE
  5
B47
330
1E
100
AcDbEntity
  8
0
  6
HIDDEN
100
AcDbLine
 10
8.044235227372425
 20
14.75074756183068
 30
0.0
 11
8.044235227372425
 21
15.30074766151593
 31
0.0
  0
ARC
  5
B48
330
1E
100
AcDbEntity
  8
0
  6
HIDDEN
100
AcDbCircle
 10
7.294235317367004
 20
14.75074748663304
 30
0.0
 40
0.1500000000000021
100
AcDbArc
 50
180.0000000000014
 51
270.0000000000008
  0
ELLIPSE
  5
B49
330
1E
100
AcDbEntity
  8
0
  6
HIDDEN
100
AcDbEllipse
 10
7.294235317367004
 20
14.75074748663304
 30
0.0
 11
0.1500000000000003
 21
0.0000000000000018
 31
0.0
210
0.0
220
0.0
230
1.0
 40
0.5866666666666599
 41
3.141592653589793
 42
4.712388980384691
  0
LINE
  5
B4A
330
1E
100
AcDbEntity
  8
0
  6
HIDDEN
100
AcDbLine
 10
7.294235291435683
 20
14.66274740508267
 30
0.0
 11
7.294235291435683
 21
14.60074742797836
 31
0.0
  0
ARC
  5
B4B
330
1E
100
AcDbEntity
  8
0
  6
Continuous
100
AcDbCircle
 10
8.015235317366993
 20
14.2727474866331
 30
0.0
 40
0.0150000000000006
100
AcDbArc
 50
180.0
 51
270.0000000000008
  0
ARC
  5
B4C
330
1E
100
AcDbEntity
  8
0
  6
Continuous
100
AcDbCircle
 10
8.015235317366993
 20
14.3127474866331
 30
0.0
 40
0.0150000000000006
100
AcDbArc
 50
90.0
 51
180.0
  0
SPLINE
  5
B4D
330
1E
100
AcDbEntity
  8
0
  6
Continuous
100
AcDbSpline
210
0.0
220
0.0
230
1.0
 70
    24
 71
     1
 72
     4
 73
     2
 74
     0
 42
0.0000000001
 43
0.0000000001
 40
0.0
 40
0.0
 40
1.0
 40
1.0
 10
8.00023544232836
 20
14.31274728831389
 30
0.0
 10
8.00023544232836
 20
14.27274764372653
 30
0.0
  0
SPLINE
  5
B4E
330
1E
100
AcDbEntity
  8
0
  6
Continuous
100
AcDbSpline
210
0.0
220
0.0
230
1.0
 70
    24
 71
     1
 72
     4
 73
     2
 74
     0
 42
0.0000000001
 43
0.0000000001
 40
0.0
 40
0.0
 40
1.0
 40
1.0
 10
8.040235380245665
 20
14.25774733701135
 30
0.0
 10
8.043121746902109
 20
14.22475534480433
 30
0.0
  0
SPLINE
  5
B4F
330
1E
100
AcDbEntity
  8
0
  6
Continuous
100
AcDbSpline
210
0.0
220
0.0
230
1.0
 70
    24
 71
     1
 72
     4
 73
     2
 74
     0
 42
0.0000000001
 43
0.0000000001
 40
0.0
 40
0.0
 40
1.0
 40
1.0
 10
8.070944092162669
 20
14.22475534480433
 30
0.0
 10
8.070944092162669
 20
14.22050323392507
 30
0.0
  0
SPLINE
  5
B50
330
1E
100
AcDbEntity
  8
0
  6
HIDDEN
100
AcDbSpline
210
0.0
220
0.0
230
1.0
 70
    24
 71
     1
 72
     4
 73
     2
 74
     0
 42
0.0000000001
 43
0.0000000001
 40
0.0
 40
0.0
 40
1.0
 40
1.0
 10
8.075235215924578
 20
14.65774730284428
 30
0.0
 10
8.075235215924578
 20
14.63274737831221
 30
0.0
  0
SPLINE
  5
B51
330
1E
100
AcDbEntity
  8
0
  6
HIDDEN
100
AcDbSpline
210
0.0
220
0.0
230
1.0
 70
    24
 71
     1
 72
     4
 73
     2
 74
     0
 42
0.0000000001
 43
0.0000000001
 40
0.0
 40
0.0
 40
1.0
 40
1.0
 10
8.062735253658541
 20
14.66274740508267
 30
0.0
 10
8.062735253658541
 20
14.66231738338365
 30
0.0
  0
LINE
  5
B52
330
1E
100
AcDbEntity
  8
0
  6
HIDDEN
100
AcDbLine
 10
7.944235235914192
 20
15.40074735964422
 30
0.0
 11
7.244235295706566
 21
15.40074735964422
 31
0.0
  0
ARC
  5
B53
330
1E
100
AcDbEntity
  8
0
  6
HIDDEN
100
AcDbCircle
 10
7.244235317366999
 20
15.30074748663304
 30
0.0
 40
0.1000000000000005
100
AcDbArc
 50
90.00000000000103
 51
180.0000000000018
  0
ARC
  5
B54
330
1E
100
AcDbEntity
  8
0
  6
HIDDEN
100
AcDbCircle
 10
7.944235317367002
 20
15.30074748663304
 30
0.0
 40
0.1000000000000014
100
AcDbArc
 50
0.0000000000010178
 51
90.0
  0
LINE
  5
B55
330
1E
100
AcDbEntity
  8
0
  6
HIDDEN
100
AcDbLine
 10
8.844235452368224
 20
14.75074756183069
 30
0.0
 11
8.844235452368224
 21
15.30074766151594
 31
0.0
  0
ARC
  5
B56
330
1E
100
AcDbEntity
  8
0
  6
HIDDEN
100
AcDbCircle
 10
8.756235317367007
 20
14.75074748663305
 30
0.0
 40
0.1500000000000003
100
AcDbArc
 50
270.0000000000008
 51
0.0000000000006107
  0
ARC
  5
B57
330
1E
100
AcDbEntity
  8
0
  6
HIDDEN
100
AcDbCircle
 10
8.756235317367007
 20
14.75074748663305
 30
0.0
 40
0.088000000000001
100
AcDbArc
 50
270.0000000000008
 51
0.0000000000012213
  0
SPLINE
  5
B58
330
1E
100
AcDbEntity
  8
0
  6
HIDDEN
100
AcDbSpline
210
0.0
220
0.0
230
1.0
 70
    24
 71
     1
 72
     4
 73
     2
 74
     0
 42
0.0000000001
 43
0.0000000001
 40
0.0
 40
0.0
 40
1.0
 40
1.0
 10
8.348235342203821
 20
14.25774733701135
 30
0.0
 10
8.348235342203821
 20
14.63274737831221
 30
0.0
  0
SPLINE
  5
B59
330
1E
100
AcDbEntity
  8
0
  6
HIDDEN
100
AcDbSpline
210
0.0
220
0.0
230
1.0
 70
    24
 71
     1
 72
     4
 73
     2
 74
     0
 42
0.0000000001
 43
0.0000000001
 40
0.0
 40
0.0
 40
1.0
 40
1.0
 10
8.152235206414115
 20
14.63274737831221
 30
0.0
 10
8.152235206414115
 20
14.25774733701135
 30
0.0
  0
LINE
  5
B5A
330
1E
100
AcDbEntity
  8
0
  6
HIDDEN
100
AcDbLine
 10
8.531235388171673
 20
14.38974757213337
 30
0.0
 11
8.531235388171673
 21
14.63974740411398
 31
0.0
  0
LINE
  5
B5B
330
1E
100
AcDbEntity
  8
0
  6
HIDDEN
100
AcDbLine
 10
8.531235388171673
 20
14.63974740411398
 30
0.0
 11
8.531235388171673
 21
14.38974757213337
 31
0.0
  0
LINE
  5
B5C
330
1E
100
AcDbEntity
  8
0
  6
HIDDEN
100
AcDbLine
 10
8.638235405431679
 20
14.41274757310206
 30
0.0
 11
8.638235405431679
 21
14.35074759599776
 31
0.0
  0
ARC
  5
B5D
330
1E
100
AcDbEntity
  8
0
  6
Continuous
100
AcDbCircle
 10
8.350786498469354
 20
14.22050339214491
 30
0.0
 40
0.0787401574803148
100
AcDbArc
 50
270.0000000000008
 51
0.0
  0
LINE
  5
B5E
330
1E
100
AcDbEntity
  8
0
  6
Continuous
100
AcDbLine
 10
8.350786432733407
 20
14.14176350353316
 30
0.0
 11
8.149684115884532
 21
14.14176350353316
 31
0.0
  0
LINE
  5
B5F
330
1E
100
AcDbEntity
  8
0
  6
HIDDEN
100
AcDbLine
 10
8.329029270740662
 20
14.16474766468484
 30
0.0
 11
8.261251573714403
 21
14.16474766468484
 31
0.0
  0
LINE
  5
B60
330
1E
100
AcDbEntity
  8
0
  6
HIDDEN
100
AcDbLine
 10
8.20530475335018
 20
14.16474766468484
 30
0.0
 11
8.160295619966198
 21
14.16474766468484
 31
0.0
  0
LINE
  5
B61
330
1E
100
AcDbEntity
  8
0
  6
HIDDEN
100
AcDbLine
 10
8.171441277877271
 20
14.16474766468484
 30
0.0
 11
8.171441277877271
 21
14.14176350353316
 31
0.0
  0
LINE
  5
B62
330
1E
100
AcDbEntity
  8
0
  6
HIDDEN
100
AcDbLine
 10
8.160295619966198
 20
14.16474766468484
 30
0.0
 11
8.160295619966198
 21
14.14176350353316
 31
0.0
  0
LINE
  5
B63
330
1E
100
AcDbEntity
  8
0
  6
HIDDEN
100
AcDbLine
 10
8.238482716742183
 20
14.16474766468484
 30
0.0
 11
8.20530475335018
 21
14.16474766468484
 31
0.0
  0
LINE
  5
B64
330
1E
100
AcDbEntity
  8
0
  6
HIDDEN
100
AcDbLine
 10
8.238482716742183
 20
14.16474766468484
 30
0.0
 11
8.238482716742183
 21
14.14176350353316
 31
0.0
  0
LINE
  5
B65
330
1E
100
AcDbEntity
  8
0
  6
HIDDEN
100
AcDbLine
 10
8.261251573714403
 20
14.16474766468484
 30
0.0
 11
8.238482716742183
 21
14.16474766468484
 31
0.0
  0
LINE
  5
B66
330
1E
100
AcDbEntity
  8
0
  6
HIDDEN
100
AcDbLine
 10
8.228073610322404
 20
14.16474766468484
 30
0.0
 11
8.228073610322404
 21
14.14176350353316
 31
0.0
  0
LINE
  5
B67
330
1E
100
AcDbEntity
  8
0
  6
HIDDEN
100
AcDbLine
 10
8.20530475335018
 20
14.16474766468484
 30
0.0
 11
8.20530475335018
 21
14.14176350353316
 31
0.0
  0
LINE
  5
B68
330
1E
100
AcDbEntity
  8
0
  6
HIDDEN
100
AcDbLine
 10
8.261251573714403
 20
14.16474766468484
 30
0.0
 11
8.261251573714403
 21
14.14176350353316
 31
0.0
  0
LINE
  5
B69
330
1E
100
AcDbEntity
  8
0
  6
HIDDEN
100
AcDbLine
 10
8.272397231625479
 20
14.16474766468484
 30
0.0
 11
8.272397231625479
 21
14.14176350353316
 31
0.0
  0
LINE
  5
B6A
330
1E
100
AcDbEntity
  8
0
  6
HIDDEN
100
AcDbLine
 10
8.239219268233476
 20
14.16474766468484
 30
0.0
 11
8.239219268233476
 21
14.14176350353316
 31
0.0
  0
LINE
  5
B6B
330
1E
100
AcDbEntity
  8
0
  6
HIDDEN
100
AcDbLine
 10
8.261988125205697
 20
14.16474766468484
 30
0.0
 11
8.261988125205697
 21
14.14176350353316
 31
0.0
  0
LINE
  5
B6C
330
1E
100
AcDbEntity
  8
0
  6
HIDDEN
100
AcDbLine
 10
8.340174928651741
 20
14.16474766468484
 30
0.0
 11
8.329029270740662
 21
14.16474766468484
 31
0.0
  0
LINE
  5
B6D
330
1E
100
AcDbEntity
  8
0
  6
HIDDEN
100
AcDbLine
 10
8.329029270740662
 20
14.16474766468484
 30
0.0
 11
8.329029270740662
 21
14.14176350353316
 31
0.0
  0
LINE
  5
B6E
330
1E
100
AcDbEntity
  8
0
  6
HIDDEN
100
AcDbLine
 10
8.340174928651741
 20
14.16474766468484
 30
0.0
 11
8.340174928651741
 21
14.14176350353316
 31
0.0
  0
LINE
  5
B6F
330
1E
100
AcDbEntity
  8
0
  6
HIDDEN
100
AcDbLine
 10
8.295166088597703
 20
14.16474766468484
 30
0.0
 11
8.295166088597703
 21
14.14176350353316
 31
0.0
  0
SPLINE
  5
B70
330
1E
100
AcDbEntity
  8
0
  6
HIDDEN
100
AcDbSpline
210
0.0
220
0.0
230
1.0
 70
    24
 71
     1
 72
     4
 73
     2
 74
     0
 42
0.0000000001
 43
0.0000000001
 40
0.0
 40
0.0
 40
1.0
 40
1.0
 10
8.135235269465503
 20
14.38974757213337
 30
0.0
 10
8.135235269465503
 20
14.32774759502907
 30
0.0
  0
ARC
  5
B71
330
1E
100
AcDbEntity
  8
0
  6
HIDDEN
100
AcDbCircle
 10
8.150235317366991
 20
14.2727474866331
 30
0.0
 40
0.0150000000000006
100
AcDbArc
 50
270.0000000000008
 51
0.0
  0
ARC
  5
B72
330
1E
100
AcDbEntity
  8
0
  6
HIDDEN
100
AcDbCircle
 10
8.150235317366991
 20
14.3127474866331
 30
0.0
 40
0.0150000000000006
100
AcDbArc
 50
0.0
 51
90.0
  0
SPLINE
  5
B73
330
1E
100
AcDbEntity
  8
0
  6
HIDDEN
100
AcDbSpline
210
0.0
220
0.0
230
1.0
 70
    24
 71
     1
 72
     4
 73
     2
 74
     0
 42
0.0000000001
 43
0.0000000001
 40
0.0
 40
0.0
 40
1.0
 40
1.0
 10
8.165235296235969
 20
14.31274728831389
 30
0.0
 10
8.165235296235969
 20
14.27274764372653
 30
0.0
  0
SPLINE
  5
B74
330
1E
100
AcDbEntity
  8
0
  6
HIDDEN
100
AcDbSpline
210
0.0
220
0.0
230
1.0
 70
    24
 71
     1
 72
     4
 73
     2
 74
     0
 42
0.0000000001
 43
0.0000000001
 40
0.0
 40
0.0
 40
1.0
 40
1.0
 10
8.365235279152432
 20
14.32774759502907
 30
0.0
 10
8.365235279152432
 20
14.38974757213337
 30
0.0
  0
ARC
  5
B75
330
1E
100
AcDbEntity
  8
0
  6
HIDDEN
100
AcDbCircle
 10
8.350235317366994
 20
14.2727474866331
 30
0.0
 40
0.0150000000000006
100
AcDbArc
 50
180.0
 51
270.0000000000008
  0
ARC
  5
B76
330
1E
100
AcDbEntity
  8
0
  6
HIDDEN
100
AcDbCircle
 10
8.350235317366994
 20
14.3127474866331
 30
0.0
 40
0.0150000000000006
100
AcDbArc
 50
90.0
 51
180.0
  0
SPLINE
  5
B77
330
1E
100
AcDbEntity
  8
0
  6
HIDDEN
100
AcDbSpline
210
0.0
220
0.0
230
1.0
 70
    24
 71
     1
 72
     4
 73
     2
 74
     0
 42
0.0000000001
 43
0.0000000001
 40
0.0
 40
0.0
 40
1.0
 40
1.0
 10
8.33523525238197
 20
14.27274764372653
 30
0.0
 10
8.33523525238197
 20
14.31274728831389
 30
0.0
  0
SPLINE
  5
B78
330
1E
100
AcDbEntity
  8
0
  6
Continuous
100
AcDbSpline
210
0.0
220
0.0
230
1.0
 70
    24
 71
     1
 72
     4
 73
     2
 74
     0
 42
0.0000000001
 43
0.0000000001
 40
0.0
 40
0.0
 40
1.0
 40
1.0
 10
8.42952674978521
 20
14.22050323392507
 30
0.0
 10
8.42952674978521
 20
14.22475534480433
 30
0.0
  0
ARC
  5
B79
330
1E
100
AcDbEntity
  8
0
  6
Continuous
100
AcDbCircle
 10
8.485235317366992
 20
14.2727474866331
 30
0.0
 40
0.0150000000000006
100
AcDbArc
 50
270.0000000000008
 51
0.0
  0
ARC
  5
B7A
330
1E
100
AcDbEntity
  8
0
  6
Continuous
100
AcDbCircle
 10
8.485235317366992
 20
14.3127474866331
 30
0.0
 40
0.0150000000000006
100
AcDbArc
 50
0.0
 51
90.0
  0
SPLINE
  5
B7B
330
1E
100
AcDbEntity
  8
0
  6
Continuous
100
AcDbSpline
210
0.0
220
0.0
230
1.0
 70
    24
 71
     1
 72
     4
 73
     2
 74
     0
 42
0.0000000001
 43
0.0000000001
 40
0.0
 40
0.0
 40
1.0
 40
1.0
 10
8.500235399619519
 20
14.27274764372653
 30
0.0
 10
8.500235399619519
 20
14.31274728831389
 30
0.0
  0
SPLINE
  5
B7C
330
1E
100
AcDbEntity
  8
0
  6
Continuous
100
AcDbSpline
210
0.0
220
0.0
230
1.0
 70
    24
 71
     1
 72
     4
 73
     2
 74
     0
 42
0.0000000001
 43
0.0000000001
 40
0.0
 40
0.0
 40
1.0
 40
1.0
 10
8.457348801715824
 20
14.22475534480433
 30
0.0
 10
8.460235461702218
 20
14.25774733701135
 30
0.0
  0
LINE
  5
B7D
330
1E
100
AcDbEntity
  8
0
  6
HIDDEN
100
AcDbLine
 10
8.756235295620211
 20
14.60074742797837
 30
0.0
 11
8.194235361224741
 21
14.60074742797836
 31
0.0
  0
LINE
  5
B7E
330
1E
100
AcDbEntity
  8
0
  6
HIDDEN
100
AcDbLine
 10
8.756235295620211
 20
14.66274740508267
 30
0.0
 11
8.194235361224741
 21
14.66274740508267
 31
0.0
  0
ARC
  5
B7F
330
1E
100
AcDbEntity
  8
0
  6
HIDDEN
100
AcDbCircle
 10
8.437735317367007
 20
14.71024748663305
 30
0.0
 40
0.1094999999999988
100
AcDbArc
 50
180.0
 51
270.0000000000008
  0
ARC
  5
B80
330
1E
100
AcDbEntity
  8
0
  6
HIDDEN
100
AcDbCircle
 10
8.437735317367007
 20
14.72981750442813
 30
0.0
 40
0.0675000000000008
100
AcDbArc
 50
180.0
 51
270.0000000000008
  0
SPLINE
  5
B81
330
1E
100
AcDbEntity
  8
0
  6
HIDDEN
100
AcDbSpline
210
0.0
220
0.0
230
1.0
 70
    24
 71
     1
 72
     4
 73
     2
 74
     0
 42
0.0000000001
 43
0.0000000001
 40
0.0
 40
0.0
 40
1.0
 40
1.0
 10
8.348235342203821
 20
14.66384973901508
 30
0.0
 10
8.348235342203821
 20
14.98577876673015
 30
0.0
  0
SPLINE
  5
B82
330
1E
100
AcDbEntity
  8
0
  6
HIDDEN
100
AcDbSpline
210
0.0
220
0.0
230
1.0
 70
    24
 71
     1
 72
     4
 73
     2
 74
     0
 42
0.0000000001
 43
0.0000000001
 40
0.0
 40
0.0
 40
1.0
 40
1.0
 10
8.152235206414115
 20
14.98577876673015
 30
0.0
 10
8.152235206414115
 20
14.66384973901508
 30
0.0
  0
LINE
  5
B83
330
1E
100
AcDbEntity
  8
0
  6
HIDDEN
100
AcDbLine
 10
8.219027608155926
 20
14.66384973901508
 30
0.0
 11
8.348235342203821
 21
14.66384973901508
 31
0.0
  0
LINE
  5
B84
330
1E
100
AcDbEntity
  8
0
  6
HIDDEN
100
AcDbLine
 10
8.370235381390827
 20
14.75230690381703
 30
0.0
 11
8.130235460557056
 21
14.75230690381703
 31
0.0
  0
LINE
  5
B85
330
1E
100
AcDbEntity
  8
0
  6
HIDDEN
100
AcDbLine
 10
8.152235206414115
 20
14.66384973901508
 30
0.0
 11
8.219027608155926
 21
14.66384973901508
 31
0.0
  0
SPLINE
  5
B86
330
1E
100
AcDbEntity
  8
0
  6
HIDDEN
100
AcDbSpline
210
0.0
220
0.0
230
1.0
 70
    24
 71
     1
 72
     4
 73
     2
 74
     0
 42
0.0000000001
 43
0.0000000001
 40
0.0
 40
0.0
 40
1.0
 40
1.0
 10
8.148682687453117
 20
14.65774730284428
 30
0.0
 10
8.148682687453117
 20
14.63274737831221
 30
0.0
  0
SPLINE
  5
B87
330
1E
100
AcDbEntity
  8
0
  6
HIDDEN
100
AcDbSpline
210
0.0
220
0.0
230
1.0
 70
    24
 71
     1
 72
     4
 73
     2
 74
     0
 42
0.0000000001
 43
0.0000000001
 40
0.0
 40
0.0
 40
1.0
 40
1.0
 10
8.176731483431034
 20
14.65774730284428
 30
0.0
 10
8.176731483431034
 20
14.63274737831221
 30
0.0
  0
SPLINE
  5
B88
330
1E
100
AcDbEntity
  8
0
  6
HIDDEN
100
AcDbSpline
210
0.0
220
0.0
230
1.0
 70
    24
 71
     1
 72
     4
 73
     2
 74
     0
 42
0.0000000001
 43
0.0000000001
 40
0.0
 40
0.0
 40
1.0
 40
1.0
 10
8.176219622677425
 20
14.66384973901508
 30
0.0
 10
8.176219622677425
 20
14.63274737831221
 30
0.0
  0
LINE
  5
B89
330
1E
100
AcDbEntity
  8
0
  6
HIDDEN
100
AcDbLine
 10
8.234750386525046
 20
14.63274737831221
 30
0.0
 11
8.234750386525046
 21
14.65774730284428
 31
0.0
  0
LINE
  5
B8A
330
1E
100
AcDbEntity
  8
0
  6
HIDDEN
100
AcDbLine
 10
8.186289053021173
 20
14.63274737831221
 30
0.0
 11
8.186289053021173
 21
14.65774730284428
 31
0.0
  0
LINE
  5
B8B
330
1E
100
AcDbEntity
  8
0
  6
HIDDEN
100
AcDbLine
 10
8.194235361224741
 20
14.66274740508267
 30
0.0
 11
8.194235361224741
 21
14.60074742797836
 31
0.0
  0
SPLINE
  5
B8C
330
1E
100
AcDbEntity
  8
0
  6
HIDDEN
100
AcDbSpline
210
0.0
220
0.0
230
1.0
 70
    24
 71
     1
 72
     4
 73
     2
 74
     0
 42
0.0000000001
 43
0.0000000001
 40
0.0
 40
0.0
 40
1.0
 40
1.0
 10
8.130235460557056
 20
14.75230690381703
 30
0.0
 10
8.130235460557056
 20
14.72981729695222
 30
0.0
  0
SPLINE
  5
B8D
330
1E
100
AcDbEntity
  8
0
  6
HIDDEN
100
AcDbSpline
210
0.0
220
0.0
230
1.0
 70
    24
 71
     1
 72
     4
 73
     2
 74
     0
 42
0.0000000001
 43
0.0000000001
 40
0.0
 40
0.0
 40
1.0
 40
1.0
 10
8.172235322037739
 20
14.75230690381703
 30
0.0
 10
8.172235322037739
 20
14.71024749635756
 30
0.0
  0
LINE
  5
B8E
330
1E
100
AcDbEntity
  8
0
  6
HIDDEN
100
AcDbLine
 10
8.365220319325249
 20
14.63274737831221
 30
0.0
 11
8.365220319325249
 21
14.65774730284428
 31
0.0
  0
LINE
  5
B8F
330
1E
100
AcDbEntity
  8
0
  6
HIDDEN
100
AcDbLine
 10
8.365220319325249
 20
14.63274737831221
 30
0.0
 11
8.357613980527659
 21
14.63274737831221
 31
0.0
  0
LINE
  5
B90
330
1E
100
AcDbEntity
  8
0
  6
HIDDEN
100
AcDbLine
 10
8.365220319325249
 20
14.65774730284428
 30
0.0
 11
8.357613980527659
 21
14.65774730284428
 31
0.0
  0
LINE
  5
B91
330
1E
100
AcDbEntity
  8
0
  6
HIDDEN
100
AcDbLine
 10
8.299520864957621
 20
14.63274737831221
 30
0.0
 11
8.299520864957621
 21
14.65774730284428
 31
0.0
  0
SPLINE
  5
B92
330
1E
100
AcDbEntity
  8
0
  6
HIDDEN
100
AcDbSpline
210
0.0
220
0.0
230
1.0
 70
    24
 71
     1
 72
     4
 73
     2
 74
     0
 42
0.0000000001
 43
0.0000000001
 40
0.0
 40
0.0
 40
1.0
 40
1.0
 10
8.324250925940511
 20
14.63274737831221
 30
0.0
 10
8.324250925940511
 20
14.66384973901508
 30
0.0
  0
SPLINE
  5
B93
330
1E
100
AcDbEntity
  8
0
  6
HIDDEN
100
AcDbSpline
210
0.0
220
0.0
230
1.0
 70
    24
 71
     1
 72
     4
 73
     2
 74
     0
 42
0.0000000001
 43
0.0000000001
 40
0.0
 40
0.0
 40
1.0
 40
1.0
 10
8.370235381390827
 20
14.72981729695222
 30
0.0
 10
8.370235381390827
 20
14.75230690381703
 30
0.0
  0
SPLINE
  5
B94
330
1E
100
AcDbEntity
  8
0
  6
HIDDEN
100
AcDbSpline
210
0.0
220
0.0
230
1.0
 70
    24
 71
     1
 72
     4
 73
     2
 74
     0
 42
0.0000000001
 43
0.0000000001
 40
0.0
 40
0.0
 40
1.0
 40
1.0
 10
8.328235226580197
 20
14.71024749635756
 30
0.0
 10
8.328235226580197
 20
14.75230690381703
 30
0.0
  0
LINE
  5
B95
330
1E
100
AcDbEntity
  8
0
  6
HIDDEN
100
AcDbLine
 10
8.348235342203821
 20
14.98577876673015
 30
0.0
 11
8.152235206414115
 21
14.98577876673015
 31
0.0
  0
LINE
  5
B96
330
1E
100
AcDbEntity
  8
0
  6
HIDDEN
100
AcDbLine
 10
8.172235322037739
 20
15.00577917568372
 30
0.0
 11
8.328235226580197
 21
15.00577917568372
 31
0.0
  0
SPLINE
  5
B97
330
1E
100
AcDbEntity
  8
0
  6
HIDDEN
100
AcDbSpline
210
0.0
220
0.0
230
1.0
 70
    24
 71
     1
 72
     4
 73
     2
 74
     0
 42
0.0000000001
 43
0.0000000001
 40
0.0
 40
0.0
 40
1.0
 40
1.0
 10
8.172235322037739
 20
15.00577917568372
 30
0.0
 10
8.152235206414115
 20
14.98577876673015
 30
0.0
  0
SPLINE
  5
B98
330
1E
100
AcDbEntity
  8
0
  6
HIDDEN
100
AcDbSpline
210
0.0
220
0.0
230
1.0
 70
    24
 71
     1
 72
     4
 73
     2
 74
     0
 42
0.0000000001
 43
0.0000000001
 40
0.0
 40
0.0
 40
1.0
 40
1.0
 10
8.348235342203821
 20
14.98577876673015
 30
0.0
 10
8.328235226580197
 20
15.00577917568372
 30
0.0
  0
SPLINE
  5
B99
330
1E
100
AcDbEntity
  8
0
  6
HIDDEN
100
AcDbSpline
210
0.0
220
0.0
230
1.0
 70
    24
 71
     1
 72
     4
 73
     2
 74
     0
 42
0.0000000001
 43
0.0000000001
 40
0.0
 40
0.0
 40
1.0
 40
1.0
 10
8.437735294959395
 20
14.66231738338365
 30
0.0
 10
8.437735294959395
 20
14.66274740508267
 30
0.0
  0
LINE
  5
B9A
330
1E
100
AcDbEntity
  8
0
  6
HIDDEN
100
AcDbLine
 10
8.756235295620211
 20
14.66274740508267
 30
0.0
 11
8.756235295620211
 21
14.60074742797837
 31
0.0
  0
ARC
  5
B9B
330
1E
100
AcDbEntity
  8
0
  6
HIDDEN
100
AcDbCircle
 10
8.891235317367005
 20
14.42774748663309
 30
0.0
 40
0.077
100
AcDbArc
 50
270.0000000000008
 51
0.0
  0
LINE
  5
B9C
330
1E
100
AcDbEntity
  8
0
  6
HIDDEN
100
AcDbLine
 10
9.031235345462832
 20
14.38974757213337
 30
0.0
 11
9.031235345462832
 21
14.63974740411398
 31
0.0
  0
LINE
  5
B9D
330
1E
100
AcDbEntity
  8
0
  6
HIDDEN
100
AcDbLine
 10
9.031235345462832
 20
14.63974740411398
 30
0.0
 11
9.031235345462832
 21
14.38974757213337
 31
0.0
  0
ARC
  5
B9E
330
1E
100
AcDbEntity
  8
0
  6
HIDDEN
100
AcDbCircle
 10
9.016235317366991
 20
14.4047474866331
 30
0.0
 40
0.0150000000000024
100
AcDbArc
 50
270.0000000000008
 51
0.0
  0
ARC
  5
B9F
330
1E
100
AcDbEntity
  8
0
  6
Continuous
100
AcDbCircle
 10
9.016235317366991
 20
14.4047474866331
 30
0.0
 40
0.0770000000000005
100
AcDbArc
 50
348.7666561571125
 51
0.0000000000020356
  0
ARC
  5
BA0
330
1E
100
AcDbEntity
  8
0
  6
Continuous
100
AcDbCircle
 10
9.016235317366991
 20
14.4047474866331
 30
0.0
 40
0.0770000000000035
100
AcDbArc
 50
269.9999999999981
 51
348.7666561571125
  0
LINE
  5
BA1
330
1E
100
AcDbEntity
  8
0
  6
HIDDEN
100
AcDbLine
 10
8.891235416087297
 20
14.35074759599776
 30
0.0
 11
8.831152350172004
 21
14.35074759599776
 31
0.0
  0
LINE
  5
BA2
330
1E
100
AcDbEntity
  8
0
  6
Continuous
100
AcDbLine
 10
9.016235332077602
 20
15.01774762408984
 30
0.0
 11
9.093235322567139
 21
15.01774762408984
 31
0.0
  0
LINE
  5
BA3
330
1E
100
AcDbEntity
  8
0
  6
HIDDEN
100
AcDbLine
 10
9.031235345462832
 20
14.63974740411398
 30
0.0
 11
9.031235345462832
 21
15.01774762408984
 31
0.0
  0
LINE
  5
BA4
330
1E
100
AcDbEntity
  8
0
  6
HIDDEN
100
AcDbLine
 10
8.968235406576837
 20
15.01774762408984
 30
0.0
 11
8.968235406576837
 21
14.42774729315735
 31
0.0
  0
SPLINE
  5
BA5
330
1E
100
AcDbEntity
  8
0
  6
HIDDEN
100
AcDbSpline
210
0.0
220
0.0
230
1.0
 70
     8
 71
     3
 72
    10
 73
     6
 74
     0
 42
0.0000000001
 43
0.0000000001
 40
0.0
 40
0.0
 40
0.0
 40
0.0
 40
0.5
 40
0.5
 40
1.0
 40
1.0
 40
1.0
 40
1.0
 10
8.891235317354876
 20
14.42774748662863
 30
0.0
 10
8.885998047402697
 20
14.42569365471845
 30
0.0
 10
8.880756957580977
 20
14.4236486496367
 30
0.0
 10
8.870557751587107
 20
14.4189047533068
 30
0.0
 10
8.865592461851704
 20
14.41619738392933
 30
0.0
 10
8.861193842797906
 20
14.4127474866331
 30
0.0
  0
SPLINE
  5
BA6
330
1E
100
AcDbEntity
  8
0
  6
HIDDEN
100
AcDbSpline
210
0.0
220
0.0
230
1.0
 70
     8
 71
     3
 72
    10
 73
     6
 74
     0
 42
0.0000000001
 43
0.0000000001
 40
0.0
 40
0.0
 40
0.0
 40
0.0
 40
0.5
 40
0.5
 40
1.0
 40
1.0
 40
1.0
 40
1.0
 10
8.891235317366987
 20
14.42774748663337
 30
0.0
 10
8.881221490783666
 20
14.42382049475258
 30
0.0
 10
8.871207664200355
 20
14.41991768463085
 30
0.0
 10
8.851180011033715
 20
14.4143640794537
 30
0.0
 10
8.841166184450397
 20
14.41274748256992
 30
0.0
 10
8.831152357867079
 20
14.41274748256992
 30
0.0
  0
SPLINE
  5
BA7
330
1E
100
AcDbEntity
  8
0
  6
HIDDEN
100
AcDbSpline
210
0.0
220
0.0
230
1.0
 70
    24
 71
     3
 72
    10
 73
     6
 74
     0
 42
0.0000000001
 43
0.0000000001
 40
0.0
 40
0.0
 40
0.0
 40
0.0
 40
0.5
 40
0.5
 40
1.0
 40
1.0
 40
1.0
 40
1.0
 10
8.831152357867079
 20
14.4127474866331
 30
0.0
 10
8.836389541691918
 20
14.4127474866331
 30
0.0
 10
8.841630547068501
 20
14.4127474866331
 30
0.0
 10
8.851829250525128
 20
14.4127474866331
 30
0.0
 10
8.856796215688262
 20
14.41274748663311
 30
0.0
 10
8.861193842797852
 20
14.41274748663311
 30
0.0
  0
LINE
  5
BA8
330
1E
100
AcDbEntity
  8
0
  6
HIDDEN
100
AcDbLine
 10
8.861193736464677
 20
14.41274757310206
 30
0.0
 11
8.90623542947253
 21
14.41274757310206
 31
0.0
  0
LWPOLYLINE
  5
BA9
330
1E
100
AcDbEntity
  8
0
  6
HIDDEN
100
AcDbPolyline
 90
        2
 70
   128
 43
0.0
 10
8.90623542947253
 20
14.4127475731021
 10
8.90623542947253
 20
14.4127475731021
  0
LWPOLYLINE
  5
BAA
330
1E
100
AcDbEntity
  8
0
  6
HIDDEN
100
AcDbPolyline
 90
        2
 70
   128
 43
0.0
 10
8.90623542947253
 20
14.41274757310206
 10
8.90623542947253
 20
14.41274757310206
  0
SPLINE
  5
BAB
330
1E
100
AcDbEntity
  8
0
  6
HIDDEN
100
AcDbSpline
210
0.0
220
0.0
230
1.0
 70
     8
 71
     3
 72
    10
 73
     6
 74
     0
 42
0.0000000001
 43
0.0000000001
 40
0.0
 40
0.0
 40
0.0
 40
0.0
 40
0.5
 40
0.5
 40
1.0
 40
1.0
 40
1.0
 40
1.0
 10
8.891235317367005
 20
14.41274748256963
 30
0.0
 10
8.895162309247805
 20
14.41274748256963
 30
0.0
 10
8.899065119369527
 20
14.41436407945341
 30
0.0
 10
8.904618724546683
 20
14.41991768463057
 30
0.0
 10
8.906235321430465
 20
14.42382049475229
 30
0.0
 10
8.906235321430465
 20
14.42774748663309
 30
0.0
  0
LINE
  5
BAC
330
1E
100
AcDbEntity
  8
0
  6
Continuous
100
AcDbLine
 10
9.093235322567139
 20
15.01774762408984
 30
0.0
 11
9.093235322567139
 21
14.40474729218865
 31
0.0
  0
LINE
  5
BAD
330
1E
100
AcDbEntity
  8
0
  6
HIDDEN
100
AcDbLine
 10
8.844235452368224
 20
15.30074766151594
 30
0.0
 11
8.844235452368224
 21
15.40074735964422
 31
0.0
  0
LINE
  5
BAE
330
1E
100
AcDbEntity
  8
0
  6
HIDDEN
100
AcDbLine
 10
8.844235452368224
 20
15.40074735964422
 30
0.0
 11
8.90623542947253
 21
15.40074735964422
 31
0.0
  0
LINE
  5
BAF
330
1E
100
AcDbEntity
  8
0
  6
HIDDEN
100
AcDbLine
 10
7.334735356908801
 20
19.16674745448976
 30
0.0
 11
7.492235350788767
 21
19.16674745448976
 31
0.0
  0
LINE
  5
BB0
330
1E
100
AcDbEntity
  8
0
  6
HIDDEN
100
AcDbLine
 10
7.492235350788767
 20
19.16674745448976
 30
0.0
 11
7.64973519800376
 21
19.16674745448976
 31
0.0
  0
ARC
  5
BB1
330
1E
100
AcDbEntity
  8
0
  6
Continuous
100
AcDbCircle
 10
8.243235317366988
 20
20.10774748663308
 30
0.0
 40
0.125
100
AcDbArc
 50
180.0
 51
270.0000000000008
  0
LINE
  5
BB2
330
1E
100
AcDbEntity
  8
0
  6
Continuous
100
AcDbLine
 10
8.618235289808055
 20
20.68274748486137
 30
0.0
 11
7.868235207206339
 21
20.68274748486137
 31
0.0
  0
LINE
  5
BB3
330
1E
100
AcDbEntity
  8
0
  6
Continuous
100
AcDbLine
 10
8.618235289808055
 20
20.6047474959239
 30
0.0
 11
7.868235207206339
 21
20.6047474959239
 31
0.0
  0
ARC
  5
BB4
330
1E
100
AcDbEntity
  8
0
  6
Continuous
100
AcDbCircle
 10
8.055735317366988
 20
20.38874748663309
 30
0.0
 40
0.0625000000000009
100
AcDbArc
 50
0.0
 51
180.0
  0
LINE
  5
BB5
330
1E
100
AcDbEntity
  8
0
  6
Continuous
100
AcDbLine
 10
7.993235416526587
 20
20.31074748473712
 30
0.0
 11
8.118235332516892
 21
20.31074748473712
 31
0.0
  0
LINE
  5
BB6
330
1E
100
AcDbEntity
  8
0
  6
Continuous
100
AcDbLine
 10
7.993235416526587
 20
20.23274748663308
 30
0.0
 11
8.118235332516892
 21
20.23274748866096
 31
0.0
  0
LINE
  5
BB7
330
1E
100
AcDbEntity
  8
0
  6
HIDDEN
100
AcDbLine
 10
7.296735342554878
 20
19.71774747929045
 30
0.0
 11
7.690735391032696
 21
19.71774747929045
 31
0.0
  0
LINE
  5
BB8
330
1E
100
AcDbEntity
  8
0
  6
HIDDEN
100
AcDbLine
 10
7.296735342554878
 20
19.79574750489418
 30
0.0
 11
7.492235350788767
 21
19.79574750489418
 31
0.0
  0
LINE
  5
BB9
330
1E
100
AcDbEntity
  8
0
  6
HIDDEN
100
AcDbLine
 10
6.860735285931404
 20
19.79574750489418
 30
0.0
 11
7.296735342554878
 21
19.79574750489418
 31
0.0
  0
LINE
  5
BBA
330
1E
100
AcDbEntity
  8
0
  6
HIDDEN
100
AcDbLine
 10
6.860735285931404
 20
19.71774747929045
 30
0.0
 11
7.296735342554878
 21
19.71774747929045
 31
0.0
  0
LINE
  5
BBB
330
1E
100
AcDbEntity
  8
0
  6
HIDDEN
100
AcDbLine
 10
6.860735285931404
 20
19.79574750489418
 30
0.0
 11
6.860735285931404
 21
19.71774747929045
 31
0.0
  0
SPLINE
  5
BBC
330
1E
100
AcDbEntity
  8
0
  6
HIDDEN
100
AcDbSpline
210
0.0
220
0.0
230
1.0
 70
    24
 71
     1
 72
     4
 73
     2
 74
     0
 42
0.0000000001
 43
0.0000000001
 40
0.0
 40
0.0
 40
1.0
 40
1.0
 10
7.212235345372725
 20
20.17074748661238
 30
0.0
 10
7.212235345372725
 20
19.79574750489418
 30
0.0
  0
LINE
  5
BBD
330
1E
100
AcDbEntity
  8
0
  6
HIDDEN
100
AcDbLine
 10
7.296735342554878
 20
19.79574750489418
 30
0.0
 11
7.296735342554878
 21
19.71774747929045
 31
0.0
  0
SPLINE
  5
BBE
330
1E
100
AcDbEntity
  8
0
  6
HIDDEN
100
AcDbSpline
210
0.0
220
0.0
230
1.0
 70
    24
 71
     1
 72
     4
 73
     2
 74
     0
 42
0.0000000001
 43
0.0000000001
 40
0.0
 40
0.0
 40
1.0
 40
1.0
 10
7.341735382710574
 20
19.79574750489418
 30
0.0
 10
7.341735382710574
 20
19.71774747929046
 30
0.0
  0
SPLINE
  5
BBF
330
1E
100
AcDbEntity
  8
0
  6
HIDDEN
100
AcDbSpline
210
0.0
220
0.0
230
1.0
 70
    24
 71
     1
 72
     4
 73
     2
 74
     0
 42
0.0000000001
 43
0.0000000001
 40
0.0
 40
0.0
 40
1.0
 40
1.0
 10
7.388735346429648
 20
19.79574750489418
 30
0.0
 10
7.388735346429648
 20
19.71774747929046
 30
0.0
  0
LINE
  5
BC0
330
1E
100
AcDbEntity
  8
0
  6
Continuous
100
AcDbLine
 10
7.743235291216038
 20
20.23274748663308
 30
0.0
 11
7.743235291216038
 21
20.32634748619123
 31
0.0
  0
LINE
  5
BC1
330
1E
100
AcDbEntity
  8
0
  6
Continuous
100
AcDbLine
 10
7.993235416526587
 20
20.32634748619123
 30
0.0
 11
7.993235416526587
 21
20.23274748663308
 31
0.0
  0
SPLINE
  5
BC2
330
1E
100
AcDbEntity
  8
0
  6
HIDDEN
100
AcDbSpline
210
0.0
220
0.0
230
1.0
 70
    24
 71
     1
 72
     4
 73
     2
 74
     0
 42
0.0000000001
 43
0.0000000001
 40
0.0
 40
0.0
 40
1.0
 40
1.0
 10
8.024735239304614
 20
20.31074748473713
 30
0.0
 10
8.024735239304614
 20
20.23274748663309
 30
0.0
  0
LINE
  5
BC3
330
1E
100
AcDbEntity
  8
0
  6
HIDDEN
100
AcDbLine
 10
7.732965516520017
 20
19.79574750489418
 30
0.0
 11
7.860735347178696
 21
19.79574750489418
 31
0.0
  0
LINE
  5
BC4
330
1E
100
AcDbEntity
  8
0
  6
HIDDEN
100
AcDbLine
 10
7.690735391032696
 20
19.71774747929045
 30
0.0
 11
7.860735347178696
 21
19.71774747929045
 31
0.0
  0
LINE
  5
BC5
330
1E
100
AcDbEntity
  8
0
  6
Continuous
100
AcDbLine
 10
7.993235416526587
 20
20.23274748663308
 30
0.0
 11
7.743235291216038
 21
20.23274748663308
 31
0.0
  0
LINE
  5
BC6
330
1E
100
AcDbEntity
  8
0
  6
HIDDEN
100
AcDbLine
 10
7.492235350788767
 20
19.79574750489418
 30
0.0
 11
7.732965516520017
 21
19.79574750489418
 31
0.0
  0
SPLINE
  5
BC7
330
1E
100
AcDbEntity
  8
0
  6
HIDDEN
100
AcDbSpline
210
0.0
220
0.0
230
1.0
 70
    24
 71
     1
 72
     4
 73
     2
 74
     0
 42
0.0000000001
 43
0.0000000001
 40
0.0
 40
0.0
 40
1.0
 40
1.0
 10
7.638735325075231
 20
19.71774747929046
 30
0.0
 10
7.638735325075231
 20
19.79574750489418
 30
0.0
  0
SPLINE
  5
BC8
330
1E
100
AcDbEntity
  8
0
  6
HIDDEN
100
AcDbSpline
210
0.0
220
0.0
230
1.0
 70
    24
 71
     1
 72
     4
 73
     2
 74
     0
 42
0.0000000001
 43
0.0000000001
 40
0.0
 40
0.0
 40
1.0
 40
1.0
 10
7.772235356204809
 20
19.79574750489418
 30
0.0
 10
7.772235356204809
 20
20.17074748661238
 30
0.0
  0
LINE
  5
BC9
330
1E
100
AcDbEntity
  8
0
  6
HIDDEN
100
AcDbLine
 10
7.690735391032696
 20
19.79574750489418
 30
0.0
 11
7.690735391032696
 21
19.71774747929045
 31
0.0
  0
SPLINE
  5
BCA
330
1E
100
AcDbEntity
  8
0
  6
HIDDEN
100
AcDbSpline
210
0.0
220
0.0
230
1.0
 70
    24
 71
     1
 72
     4
 73
     2
 74
     0
 42
0.0000000001
 43
0.0000000001
 40
0.0
 40
0.0
 40
1.0
 40
1.0
 10
7.685735288794305
 20
19.71774747929046
 30
0.0
 10
7.685735288794305
 20
19.79574750489418
 30
0.0
  0
SPLINE
  5
BCB
330
1E
100
AcDbEntity
  8
0
  6
HIDDEN
100
AcDbSpline
210
0.0
220
0.0
230
1.0
 70
    24
 71
     1
 72
     4
 73
     2
 74
     0
 42
0.0000000001
 43
0.0000000001
 40
0.0
 40
0.0
 40
1.0
 40
1.0
 10
8.046235444265747
 20
20.23274748663309
 30
0.0
 10
8.046235444265747
 20
20.17074748661238
 30
0.0
  0
LINE
  5
BCC
330
1E
100
AcDbEntity
  8
0
  6
HIDDEN
100
AcDbLine
 10
7.860735347178696
 20
19.79574750489418
 30
0.0
 11
7.985735263169001
 21
19.79574750489418
 31
0.0
  0
LINE
  5
BCD
330
1E
100
AcDbEntity
  8
0
  6
HIDDEN
100
AcDbLine
 10
7.985735263169001
 20
19.71774747929045
 30
0.0
 11
7.860735347178696
 21
19.71774747929045
 31
0.0
  0
LINE
  5
BCE
330
1E
100
AcDbEntity
  8
0
  6
HIDDEN
100
AcDbLine
 10
7.860735347178696
 20
19.71774747929045
 30
0.0
 11
7.860735347178696
 21
19.79574750489418
 31
0.0
  0
LINE
  5
BCF
330
1E
100
AcDbEntity
  8
0
  6
HIDDEN
100
AcDbLine
 10
7.985735263169001
 20
19.79574750489418
 30
0.0
 11
7.985735263169001
 21
19.71774747929045
 31
0.0
  0
LINE
  5
BD0
330
1E
100
AcDbEntity
  8
0
  6
HIDDEN
100
AcDbLine
 10
7.993235416526587
 20
20.31074748473712
 30
0.0
 11
7.743235291216038
 21
20.31074748473712
 31
0.0
  0
LINE
  5
BD1
330
1E
100
AcDbEntity
  8
0
  6
Continuous
100
AcDbLine
 10
7.743235291216038
 20
20.68274748486137
 30
0.0
 11
7.868235207206339
 21
20.68274748486137
 31
0.0
  0
LINE
  5
BD2
330
1E
100
AcDbEntity
  8
0
  6
Continuous
100
AcDbLine
 10
7.868235207206339
 20
20.6047474959239
 30
0.0
 11
7.743235291216038
 21
20.6047474959239
 31
0.0
  0
LINE
  5
BD3
330
1E
100
AcDbEntity
  8
0
  6
Continuous
100
AcDbLine
 10
7.743235291216038
 20
20.32634748619123
 30
0.0
 11
7.743235291216038
 21
20.58914747613666
 31
0.0
  0
LINE
  5
BD4
330
1E
100
AcDbEntity
  8
0
  6
Continuous
100
AcDbLine
 10
7.743235291216038
 20
20.6047474959239
 30
0.0
 11
7.743235291216038
 21
20.68274748486137
 31
0.0
  0
LINE
  5
BD5
330
1E
100
AcDbEntity
  8
0
  6
Continuous
100
AcDbLine
 10
7.743235291216038
 20
20.58914747613666
 30
0.0
 11
7.743235291216038
 21
20.6047474959239
 31
0.0
  0
LINE
  5
BD6
330
1E
100
AcDbEntity
  8
0
  6
Continuous
100
AcDbLine
 10
7.993235416526587
 20
20.38874748284115
 30
0.0
 11
7.993235416526587
 21
20.32634748619123
 31
0.0
  0
LINE
  5
BD7
330
1E
100
AcDbEntity
  8
0
  6
HIDDEN
100
AcDbLine
 10
8.024735239304614
 20
20.68274748486138
 30
0.0
 11
8.024735239304614
 21
20.6047474959239
 31
0.0
  0
LINE
  5
BD8
330
1E
100
AcDbEntity
  8
0
  6
Continuous
100
AcDbLine
 10
8.743235205798356
 20
20.2327474886004
 30
0.0
 11
8.891235416087297
 21
20.23274748858607
 31
0.0
  0
LINE
  5
BD9
330
1E
100
AcDbEntity
  8
0
  6
Continuous
100
AcDbLine
 10
8.118235332516892
 20
20.38874748284115
 30
0.0
 11
8.118235332516892
 21
20.10774748814374
 31
0.0
  0
LINE
  5
BDA
330
1E
100
AcDbEntity
  8
0
  6
Continuous
100
AcDbLine
 10
8.368235457827445
 20
20.10774748814374
 30
0.0
 11
8.368235457827445
 21
20.38874748284115
 31
0.0
  0
LINE
  5
BDB
330
1E
100
AcDbEntity
  8
0
  6
Continuous
100
AcDbLine
 10
8.49323537381775
 20
20.23274748663308
 30
0.0
 11
8.49323537381775
 21
20.32634748619123
 31
0.0
  0
SPLINE
  5
BDC
330
1E
100
AcDbEntity
  8
0
  6
HIDDEN
100
AcDbSpline
210
0.0
220
0.0
230
1.0
 70
    24
 71
     1
 72
     4
 73
     2
 74
     0
 42
0.0000000001
 43
0.0000000001
 40
0.0
 40
0.0
 40
1.0
 40
1.0
 10
8.461735257709779
 20
20.23274748663309
 30
0.0
 10
8.461735257709779
 20
20.31074748473713
 30
0.0
  0
LINE
  5
BDD
330
1E
100
AcDbEntity
  8
0
  6
Continuous
100
AcDbLine
 10
8.743235205798356
 20
20.23274748663308
 30
0.0
 11
8.743235205798356
 21
20.32634748619123
 31
0.0
  0
LINE
  5
BDE
330
1E
100
AcDbEntity
  8
0
  6
Continuous
100
AcDbLine
 10
8.368235457827445
 20
20.23274748863674
 30
0.0
 11
8.49323537381775
 21
20.23274748862463
 31
0.0
  0
ARC
  5
BDF
330
1E
100
AcDbEntity
  8
0
  6
Continuous
100
AcDbCircle
 10
8.243235317366988
 20
20.10774748663308
 30
0.0
 40
0.125
100
AcDbArc
 50
270.0000000000008
 51
0.0
  0
LINE
  5
BE0
330
1E
100
AcDbEntity
  8
0
  6
HIDDEN
100
AcDbLine
 10
8.118235332516892
 20
20.23274748866096
 30
0.0
 11
8.368235457827445
 21
20.23274748863674
 31
0.0
  0
SPLINE
  5
BE1
330
1E
100
AcDbEntity
  8
0
  6
HIDDEN
100
AcDbSpline
210
0.0
220
0.0
230
1.0
 70
    24
 71
     1
 72
     4
 73
     2
 74
     0
 42
0.0000000001
 43
0.0000000001
 40
0.0
 40
0.0
 40
1.0
 40
1.0
 10
8.440235346078594
 20
20.17074748661238
 30
0.0
 10
8.440235346078594
 20
20.23274748663309
 30
0.0
  0
LINE
  5
BE2
330
1E
100
AcDbEntity
  8
0
  6
Continuous
100
AcDbLine
 10
8.743235205798356
 20
20.23274748663308
 30
0.0
 11
8.49323537381775
 21
20.23274748663308
 31
0.0
  0
LINE
  5
BE3
330
1E
100
AcDbEntity
  8
0
  6
Continuous
100
AcDbLine
 10
8.368235457827445
 20
20.31074748473712
 30
0.0
 11
8.49323537381775
 21
20.31074748473712
 31
0.0
  0
ARC
  5
BE4
330
1E
100
AcDbEntity
  8
0
  6
Continuous
100
AcDbCircle
 10
8.430735317366988
 20
20.38874748663309
 30
0.0
 40
0.0625000000000018
100
AcDbArc
 50
0.0
 51
180.0
  0
LINE
  5
BE5
330
1E
100
AcDbEntity
  8
0
  6
HIDDEN
100
AcDbLine
 10
8.118235332516892
 20
20.31074748473712
 30
0.0
 11
8.368235457827445
 21
20.31074748473712
 31
0.0
  0
LINE
  5
BE6
330
1E
100
AcDbEntity
  8
0
  6
HIDDEN
100
AcDbLine
 10
8.743235205798356
 20
20.31074748473712
 30
0.0
 11
8.49323537381775
 21
20.31074748473712
 31
0.0
  0
LINE
  5
BE7
330
1E
100
AcDbEntity
  8
0
  6
Continuous
100
AcDbLine
 10
8.49323537381775
 20
20.38874748284115
 30
0.0
 11
8.49323537381775
 21
20.32634748619123
 31
0.0
  0
LINE
  5
BE8
330
1E
100
AcDbEntity
  8
0
  6
HIDDEN
100
AcDbLine
 10
8.461735257709779
 20
20.68274748486138
 30
0.0
 11
8.461735257709779
 21
20.6047474959239
 31
0.0
  0
LINE
  5
BE9
330
1E
100
AcDbEntity
  8
0
  6
Continuous
100
AcDbLine
 10
8.743235205798356
 20
20.32634748619123
 30
0.0
 11
8.743235205798356
 21
20.58914747613666
 31
0.0
  0
LINE
  5
BEA
330
1E
100
AcDbEntity
  8
0
  6
Continuous
100
AcDbLine
 10
8.618235289808055
 20
20.68274748486137
 30
0.0
 11
8.743235205798356
 21
20.68274748486137
 31
0.0
  0
LINE
  5
BEB
330
1E
100
AcDbEntity
  8
0
  6
Continuous
100
AcDbLine
 10
8.743235205798356
 20
20.6047474959239
 30
0.0
 11
8.618235289808055
 21
20.6047474959239
 31
0.0
  0
LINE
  5
BEC
330
1E
100
AcDbEntity
  8
0
  6
Continuous
100
AcDbLine
 10
8.743235205798356
 20
20.68274748486137
 30
0.0
 11
8.743235205798356
 21
20.6047474959239
 31
0.0
  0
LINE
  5
BED
330
1E
100
AcDbEntity
  8
0
  6
Continuous
100
AcDbLine
 10
8.743235205798356
 20
20.58914747613666
 30
0.0
 11
8.743235205798356
 21
20.6047474959239
 31
0.0
  0
ARC
  5
BEE
330
1E
100
AcDbEntity
  8
0
  6
Continuous
100
AcDbCircle
 10
8.891235317366987
 20
20.15574748663309
 30
0.0
 40
0.0770000019529817
100
AcDbArc
 50
11.2333441450177
 51
90.0
  0
ARC
  5
BEF
330
1E
100
AcDbEntity
  8
0
  6
HIDDEN
100
AcDbCircle
 10
8.891235317366987
 20
20.15574748528281
 30
0.0
 40
0.0150000027005729
100
AcDbArc
 50
0.0000051577018697
 51
90.0
  0
ARC
  5
BF0
330
1E
100
AcDbEntity
  8
0
  6
Continuous
100
AcDbCircle
 10
8.891235317366987
 20
20.15574748663309
 30
0.0
 40
0.0770000013502869
100
AcDbArc
 50
0.0000000001811644
 51
11.2333441450177
  0
LINE
  5
BF1
330
1E
100
AcDbEntity
  8
0
  6
Continuous
100
AcDbLine
 10
19.73754387728067
 20
9.762021067686916
 30
0.0
 11
20.0003438672261
 21
9.762021067686916
 31
0.0
  0
LINE
  5
BF2
330
1E
100
AcDbEntity
  8
0
  6
Continuous
100
AcDbLine
 10
19.73754387728067
 20
9.684021115415688
 30
0.0
 11
20.0003438672261
 21
9.684021115415688
 31
0.0
  0
LINE
  5
BF3
330
1E
100
AcDbEntity
  8
0
  6
Continuous
100
AcDbLine
 10
19.79994387393059
 20
9.684021115415688
 30
0.0
 11
19.86244386859198
 21
9.684021115415688
 31
0.0
  0
LINE
  5
BF4
330
1E
100
AcDbEntity
  8
0
  6
Continuous
100
AcDbLine
 10
19.79994387393059
 20
9.762021067686916
 30
0.0
 11
19.86244386859198
 21
9.762021067686916
 31
0.0
  0
LINE
  5
BF5
330
1E
100
AcDbEntity
  8
0
  6
Continuous
100
AcDbLine
 10
19.72194387582655
 20
8.559020991513115
 30
0.0
 11
19.72194387582655
 21
9.668420655633529
 31
0.0
  0
LINE
  5
BF6
330
1E
100
AcDbEntity
  8
0
  6
Continuous
100
AcDbLine
 10
19.72194387582656
 20
9.387021026386058
 30
0.0
 11
19.72194387582656
 21
9.26202081706581
 31
0.0
  0
LINE
  5
BF7
330
1E
100
AcDbEntity
  8
0
  6
Continuous
100
AcDbLine
 10
19.20694389598359
 20
8.012045710218242
 30
0.0
 11
19.12894387037987
 21
8.012045710218242
 31
0.0
  0
HATCH
  5
BF8
330
1E
100
AcDbEntity
  8
0
  6
Continuous
100
AcDbHatch
 10
0.0
 20
0.0
 30
0.0
210
0.0
220
0.0
230
1.0
  2
ANSI31
 70
     0
 71
     0
 91
        1
 92
        0
 93
        4
 72
     1
 10
19.20694387772251
 20
8.355996174540635
 11
19.20694387772251
 21
8.971020907146606
 72
     1
 10
19.20694387772251
 20
8.971020907146606
 11
19.12894387772251
 21
8.971020907146606
 72
     1
 10
19.12894387772251
 20
8.971020907146606
 11
19.12894387772251
 21
8.355996174540635
 72
     1
 10
19.12894387772251
 20
8.355996174540635
 11
19.20694387772251
 21
8.355996174540635
 97
        0
 75
     0
 76
     1
 52
0.0
 41
1.0
 77
     0
 78
     1
 53
45.0
 43
0.0
 44
0.0
 45
-0.0883883476483184
 46
0.0883883476483185
 79
     0
 98
        1
 10
0.0
 20
0.0
  0
LINE
  5
BF9
330
1E
100
AcDbEntity
  8
0
  6
Continuous
100
AcDbLine
 10
19.12894387037987
 20
8.35599619020628
 30
0.0
 11
19.20694389598359
 21
8.35599619020628
 31
0.0
  0
LINE
  5
BFA
330
1E
100
AcDbEntity
  8
0
  6
Continuous
100
AcDbLine
 10
19.20694389598359
 20
8.971020792056265
 30
0.0
 11
19.12894387037987
 21
8.971020792056265
 31
0.0
  0
LINE
  5
BFB
330
1E
100
AcDbEntity
  8
0
  6
Continuous
100
AcDbLine
 10
19.12894387037987
 20
8.35599619020628
 30
0.0
 11
19.12894387037987
 21
8.971020792056265
 31
0.0
  0
SPLINE
  5
BFC
330
1E
100
AcDbEntity
  8
0
  6
Continuous
100
AcDbSpline
210
0.0
220
0.0
230
1.0
 70
    24
 71
     1
 72
     4
 73
     2
 74
     0
 42
0.0000000001
 43
0.0000000001
 40
0.0
 40
0.0
 40
1.0
 40
1.0
 10
18.57794384557919
 20
8.026520956332298
 30
0.0
 10
19.12894387037988
 20
8.026520956332298
 30
0.0
  0
SPLINE
  5
BFD
330
1E
100
AcDbEntity
  8
0
  6
Continuous
100
AcDbSpline
210
0.0
220
0.0
230
1.0
 70
    24
 71
     1
 72
     4
 73
     2
 74
     0
 42
0.0000000001
 43
0.0000000001
 40
0.0
 40
0.0
 40
1.0
 40
1.0
 10
19.12894387037988
 20
8.341520944092223
 30
0.0
 10
18.57794384557919
 20
8.341520944092223
 30
0.0
  0
LINE
  5
BFE
330
1E
100
AcDbEntity
  8
0
  6
Continuous
100
AcDbLine
 10
18.57794384557919
 20
8.341520944092223
 30
0.0
 11
18.57794384557919
 21
8.026520956332298
 31
0.0
  0
LINE
  5
BFF
330
1E
100
AcDbEntity
  8
0
  6
Continuous
100
AcDbLine
 10
19.12894387037987
 20
8.35599619020628
 30
0.0
 11
19.12894387037987
 21
8.012045710218242
 31
0.0
  0
LINE
  5
C00
330
1E
100
AcDbEntity
  8
0
  6
Continuous
100
AcDbLine
 10
19.12894387037988
 20
7.987020852640867
 30
0.0
 11
19.12894387037988
 21
8.026520956332298
 31
0.0
  0
LINE
  5
C01
330
1E
100
AcDbEntity
  8
0
  6
Continuous
100
AcDbLine
 10
19.20694389598359
 20
8.35599619020628
 30
0.0
 11
19.20694389598359
 21
8.971020792056265
 31
0.0
  0
LINE
  5
C02
330
1E
100
AcDbEntity
  8
0
  6
Continuous
100
AcDbLine
 10
19.72194387582655
 20
8.559020991513115
 30
0.0
 11
19.72194387582655
 21
8.434020782192867
 31
0.0
  0
SPLINE
  5
C03
330
1E
100
AcDbEntity
  8
0
  6
Continuous
100
AcDbSpline
210
0.0
220
0.0
230
1.0
 70
    24
 71
     1
 72
     4
 73
     2
 74
     0
 42
0.0000000001
 43
0.0000000001
 40
0.0
 40
0.0
 40
1.0
 40
1.0
 10
19.58194387770181
 20
8.464020808963333
 30
0.0
 10
19.2069438959836
 20
8.464020808963333
 30
0.0
  0
SPLINE
  5
C04
330
1E
100
AcDbEntity
  8
0
  6
Continuous
100
AcDbSpline
210
0.0
220
0.0
230
1.0
 70
    24
 71
     1
 72
     4
 73
     2
 74
     0
 42
0.0000000001
 43
0.0000000001
 40
0.0
 40
0.0
 40
1.0
 40
1.0
 10
19.2069438959836
 20
7.904020798131245
 30
0.0
 10
19.58194387770181
 20
7.904020798131245
 30
0.0
  0
LINE
  5
C05
330
1E
100
AcDbEntity
  8
0
  6
Continuous
100
AcDbLine
 10
19.20694389598359
 20
8.35599619020628
 30
0.0
 11
19.20694389598359
 21
8.012045710218242
 31
0.0
  0
LINE
  5
C06
330
1E
100
AcDbEntity
  8
0
  6
Continuous
100
AcDbLine
 10
19.72194387582655
 20
8.434020782192867
 30
0.0
 11
19.64394387772252
 21
8.434020782192867
 31
0.0
  0
LINE
  5
C07
330
1E
100
AcDbEntity
  8
0
  6
Continuous
100
AcDbLine
 10
19.39394388074382
 20
9.762021067686916
 30
0.0
 11
19.51894387923317
 21
9.762021067686916
 31
0.0
  0
LINE
  5
C08
330
1E
100
AcDbEntity
  8
0
  6
Continuous
100
AcDbLine
 10
19.39394388074382
 20
9.684021115415688
 30
0.0
 11
19.39394388074382
 21
9.762021067686916
 31
0.0
  0
LINE
  5
C09
330
1E
100
AcDbEntity
  8
0
  6
Continuous
100
AcDbLine
 10
19.72194387582656
 20
9.668420655633529
 30
0.0
 11
19.72194387582656
 21
9.387021026386058
 31
0.0
  0
ARC
  5
C0A
330
1E
100
AcDbEntity
  8
0
  6
Continuous
100
AcDbCircle
 10
19.73754387772252
 20
9.668420907146906
 30
0.0
 40
0.0936000000000021
100
AcDbArc
 50
90.0
 51
179.9999999999998
  0
LINE
  5
C0B
330
1E
100
AcDbEntity
  8
0
  6
Continuous
100
AcDbLine
 10
19.51894387923317
 20
9.762021067686916
 30
0.0
 11
19.79994387393059
 21
9.762021067686916
 31
0.0
  0
ARC
  5
C0C
330
1E
100
AcDbEntity
  8
0
  6
Continuous
100
AcDbCircle
 10
19.56694387772251
 20
9.607020907146733
 30
0.0
 40
0.0150000034075646
100
AcDbArc
 50
0.0
 51
89.99998698406422
  0
ARC
  5
C0D
330
1E
100
AcDbEntity
  8
0
  6
Continuous
100
AcDbCircle
 10
19.56694387772251
 20
9.607020907146733
 30
0.0
 40
0.0770000034075658
100
AcDbArc
 50
0.0
 51
89.99999999980968
  0
LINE
  5
C0E
330
1E
100
AcDbEntity
  8
0
  6
Continuous
100
AcDbLine
 10
19.56694387806642
 20
9.684021115415688
 30
0.0
 11
19.64525303304176
 21
9.684021115415688
 31
0.0
  0
LINE
  5
C0F
330
1E
100
AcDbEntity
  8
0
  6
Continuous
100
AcDbLine
 10
19.64394387772252
 20
9.607020831596202
 30
0.0
 11
19.64394387772252
 21
9.668420655633529
 31
0.0
  0
LINE
  5
C10
330
1E
100
AcDbEntity
  8
0
  6
Continuous
100
AcDbLine
 10
19.79994387393059
 20
9.684021115415688
 30
0.0
 11
19.73754387728067
 21
9.684021115415688
 31
0.0
  0
ARC
  5
C11
330
1E
100
AcDbEntity
  8
0
  6
Continuous
100
AcDbCircle
 10
19.73754387772252
 20
9.668420907146906
 30
0.0
 40
0.0156000000000027
100
AcDbArc
 50
90.0
 51
179.9999999999983
  0
LINE
  5
C12
330
1E
100
AcDbEntity
  8
0
  6
Continuous
100
AcDbLine
 10
19.79994387393059
 20
9.762021067686916
 30
0.0
 11
19.73754387728067
 21
9.762021067686916
 31
0.0
  0
LINE
  5
C13
330
1E
100
AcDbEntity
  8
0
  6
Continuous
100
AcDbLine
 10
20.01594388701334
 20
9.777620940809182
 30
0.0
 11
20.01594388701334
 21
10.79402093260307
 31
0.0
  0
LINE
  5
C14
330
1E
100
AcDbEntity
  8
0
  6
Continuous
100
AcDbLine
 10
20.09394387595081
 20
9.777620940809182
 30
0.0
 11
20.09394387595081
 21
10.79402093260307
 31
0.0
  0
ARC
  5
C15
330
1E
100
AcDbEntity
  8
0
  6
Continuous
100
AcDbCircle
 10
20.00034387772252
 20
9.777620907146904
 30
0.0
 40
0.0936000000000057
100
AcDbArc
 50
270.0000000000008
 51
0.0000000000004071
  0
ARC
  5
C16
330
1E
100
AcDbEntity
  8
0
  6
Continuous
100
AcDbCircle
 10
20.00034387772252
 20
9.777620907146904
 30
0.0
 40
0.0156000000000027
100
AcDbArc
 50
270.0000000000008
 51
0.0
  0
LINE
  5
C17
330
1E
100
AcDbEntity
  8
0
  6
Continuous
100
AcDbLine
 10
20.01594388701334
 20
10.79402093260307
 30
0.0
 11
20.01594388701334
 21
10.91902114192332
 31
0.0
  0
LINE
  5
C18
330
1E
100
AcDbEntity
  8
0
  6
Continuous
100
AcDbLine
 10
20.09394387595081
 20
10.91902114192332
 30
0.0
 11
20.09394387595081
 21
10.79402093260307
 31
0.0
  0
LINE
  5
C19
330
1E
100
AcDbEntity
  8
0
  6
Continuous
100
AcDbLine
 10
20.01594388701334
 20
10.91902114192332
 30
0.0
 11
20.09394387595081
 21
10.91902114192332
 31
0.0
  0
ENDSEC
  0
SECTION
  2
OBJECTS
  0
DICTIONARY
  5
C
330
0
100
AcDbDictionary
281
     1
  3
ACAD_GROUP
350
D
  3
ACAD_LAYOUT
350
19
  3
ACAD_MLINESTYLE
350
16
  3
ACAD_PLOTSETTINGS
350
18
  3
ACAD_PLOTSTYLENAME
350
E
  3
AcadDim
350
56
  0
DICTIONARY
  5
D
102
{ACAD_REACTORS
330
C
102
}
330
C
100
AcDbDictionary
281
     1
  0
DICTIONARY
  5
19
102
{ACAD_REACTORS
330
C
102
}
330
C
100
AcDbDictionary
281
     1
  3
Layout1
350
1D
  3
Model
350
21
  0
DICTIONARY
  5
16
102
{ACAD_REACTORS
330
C
102
}
330
C
100
AcDbDictionary
281
     1
  3
Standard
350
17
  0
DICTIONARY
  5
18
102
{ACAD_REACTORS
330
C
102
}
330
C
100
AcDbDictionary
281
     1
  0
ACDBDICTIONARYWDFLT
  5
E
102
{ACAD_REACTORS
330
C
102
}
330
C
100
AcDbDictionary
281
     1
  3
Normal
350
F
100
AcDbDictionaryWithDefault
340
F
  0
XRECORD
  5
56
102
{ACAD_REACTORS
330
C
102
}
330
C
100
AcDbXrecord
280
     1
 90
   990106
  3

 60
     0
 61
     0
 62
     1
 63
     1
 64
     0
 65
     0
 66
     0
 67
     3
 68
     1
 69
     0
 70
     0
 71
     0
 72
     0
 40
0.0
170
     2
  0
LAYOUT
  5
1D
102
{ACAD_REACTORS
330
19
102
}
330
19
100
AcDbPlotSettings
  1

  2
C:\Program Files\ACAD2000\plotters\DWF ePlot.pc3
  4

  6

 40
0.0
 41
0.0
 42
0.0
 43
0.0
 44
0.0
 45
0.0
 46
0.0
 47
0.0
 48
0.0
 49
0.0
140
0.0
141
0.0
142
1.0
143
1.0
 70
   688
 72
     0
 73
     0
 74
     5
  7
monochrome.ctb
 75
    16
147
1.0
148
0.0
149
0.0
100
AcDbLayout
  1
Layout1
 70
     1
 71
     1
 10
0.0
 20
0.0
 11
12.0
 21
9.0
 12
0.0
 22
0.0
 32
0.0
 14
1.000000000000000E+20
 24
1.000000000000000E+20
 34
1.000000000000000E+20
 15
-1.000000000000000E+20
 25
-1.000000000000000E+20
 35
-1.000000000000000E+20
146
0.0
 13
0.0
 23
0.0
 33
0.0
 16
1.0
 26
0.0
 36
0.0
 17
0.0
 27
1.0
 37
0.0
 76
     0
330
1A
  0
LAYOUT
  5
21
102
{ACAD_REACTORS
330
19
102
}
330
19
100
AcDbPlotSettings
  1

  2
\\HOST\HP6L
  4
Letter
  6

 40
7.143749713897705
 41
5.027085304260253
 42
7.14373779296875
 43
5.027069091796875
 44
215.8999938964843
 45
279.3999938964843
 46
0.0
 47
0.0
 48
0.0
 49
0.0
140
0.0
141
0.0
142
1.0
143
1.336891976530134
 70
 11952
 72
     0
 73
     1
 74
     0
  7
monochrome.ctb
 75
     0
147
0.7480035915807289
148
0.0
149
0.0
100
AcDbLayout
  1
Model
 70
     1
 71
     0
 10
0.0
 20
0.0
 11
12.0
 21
9.0
 12
0.0
 22
0.0
 32
0.0
 14
0.0
 24
0.0
 34
0.0
 15
0.0
 25
0.0
 35
0.0
146
0.0
 13
0.0
 23
0.0
 33
0.0
 16
1.0
 26
0.0
 36
0.0
 17
0.0
 27
1.0
 37
0.0
 76
     0
330
1E
  0
MLINESTYLE
  5
17
102
{ACAD_REACTORS
330
16
102
}
330
16
100
AcDbMlineStyle
  2
STANDARD
 70
     0
  3

 62
   256
 51
90.0
 52
90.0
 71
     2
 49
0.5
 62
   256
  6
BYLAYER
 49
-0.5
 62
   256
  6
BYLAYER
  0
ACDBPLACEHOLDER
  5
F
102
{ACAD_REACTORS
330
E
102
}
330
E
  0
ENDSEC
  0
EOF
